The Casualties - Punk Rock Love Chords & Tabs

 

Punk Rock Love Chords & Tabs

The Casualties Chords & Tabs

Version: 1 Type: Tab 0 ratings
1 star 2 stars 3 stars 4 stars 5 stars
comments

Punk Rock Love Tab

Title: Punk Rock Love
Artist: The Casualties
Tabbed by: Sean Walsh (sean_the_man_13@hotmail.com)





Intro Pt. 1

e|-----------------------------------------------------------|
B|-----------------------------------------------------------|
G|-----------------------------------------------------------|  x2
D|----------------6-----6---------7--9--7-----7--9-11-9-11-9-|
A|---7-----7---4-----4-----4---5-----------7-----------------|
E|5-----5----------------------------------------------------|


Intro Pt. 2
[ Tab from: http://www.guitartabs.cc/tabs/t/the_casualties/punk_rock_love_tab.html ]
e|----------------------------------------|
B|---9/10-10-9--9-10-12-10---10-12-10-9---|
G|------------9------------9--------------|  x2
D|----------------------------------------|
A|----------------------------------------|
E|----------------------------------------|


Intro Pt. 3

e|-----------------------------------|
B|---9-10p9h10-9-10p9h10-9-10-9-10-9-|     
G|-----------------------------------|  x2 
D|-----------------------------------|     
A|-----------------------------------|     
E|-----------------------------------|


Verse/Chorus

e|---------------------------------------------------------|
B|---------------------------------------------------------|
G|------------------9--9--9--9---11--11--11--11----9--9--9-|
D|-----7--7--7--7---9--9--9--9---11--11--11--11----9--9--9-|
A|-----7--7--7--7---7--7--7--7----9---9---9---9----7--7--7-|
E|-----5--5--5--5------------------------------------------|
Comments