The Calling - Wherever You Will Go Chords & Tabs

 

Wherever You Will Go Chords & Tabs

The Calling Chords & Tabs

Version: 1 Type: Tab 1 rating
1 star 2 stars 3 stars 4 stars 5 stars
comments

Wherever You Will Go Tab

   
intro
e--------------------------------------------------------------------
B-------------------3---------------------------------3----------------
G---------2-----------------2---------------2------------2----------
D------4---------4--------------4--------0--------0--------4---------
A---5---------5----------------------5---------5------------------------
E-----------------------------------------------------------------
[ Tab from: http://www.guitartabs.cc/tabs/t/the_calling/wherever_you_will_go_tab.html ]
e----------------------------------------------3---------3-------------
B-------------------3-----------------------------3---------2-----------
G---------4-----------------2-------------------------------------
D------4---------4--------------4--------2-----------2--------------
A---2---------2----------------------3---------------------------------
E-----------------------------------------------------------------

verse:do the intro

chorus: D A Bm G










comments? 
johnminzingnoel@yahoo.com


Comments