The Call - Shayad Chords & Tabs

 

Shayad Chords & Tabs

The Call Chords & Tabs

Version: 2 Type: Tab

Shayad Tab

   
--------------------------------------------------------------------------                           
SHAYAD BY CALL
--------------------------------------------------------------------------
Tabbed by:
Email:mahiralishah@yahoo.com
Band:CALL
Song:Shayad (SOLO)
Tuning:

e|-5----------------------------5-------------------------------------------|
B|--7-8-7-5--5-5-7-5-3-3-5-------7-8-7-5--5-5-7-5-3-3-5s7-7-----------------|
G|--------------------------------------------------------------------------|
D|--------------------------------------------------------------------------|
A|--------------------------------------------------------------------------|
E|--------------------------------------------------------------------------|
Shayad yehi kismat main likah hai Mmanzil yehi dil deyeah main jal raha
[ Tab from: http://www.guitartabs.cc/tabs/t/the_call/shayad_tab_ver_2.html ]
e|-7h5-7h5-5-7-3-5---5-5-7-8p7----7-5-7-5-7-3-5-2-2-3-3s5-------------------|
B|--------------------------------------------------------------------------|
G|--------------------------------------------------------------------------|
D|--------------------------------------------------------------------------|
A|--------------------------------------------------------------------------|
E|--------------------------------------------------------------------------|
In sab sawaloon main kia likah hai  Sochoo toh kuch bhi nahi sab khalah hai

e|-3-3-3-5s7-5-5-5-7s9-9-7-----9p7-7-7-7-5-5-5-2-2-3-3s5s7-7----------------|
B|--------------------------------------------------------------------------|
G|--------------------------------------------------------------------------|
D|--------------------------------------------------------------------------|
A|--------------------------------------------------------------------------|
E|--------------------------------------------------------------------------|
Aaj bhi esi moorh pay rooh karar    Kis gunah ki da raha hai sazah 

                              Syed Mahir Ali Shah from Bannu
| h  hammer-on
| p  pull-off