The Call - Shayad Chords & Tabs

 

Shayad Chords & Tabs

The Call Chords & Tabs

Version: 1 Type: Tab

Shayad Tab

SHAYAD by CALL
tabbed by ahmed nadeem (ahm3d_nad33m@hotmail.com)

Tuning: Dropped D (DADGBe)
________________________________________

(ALL IN DISTORTION)
ok the intro is:

e	[------------]
B	[------------]
G	[------------]
D	[-0-0-3-2-0--]
A	[-0-0-3-2-0--]
D	[-0-0-3-2-0--]

STRUM ACCORDINGLY
e	[-------------------------------]
B	[-------------------------------]
G	[-------------------------------]
D	[-0------8------5-7-8-------10--]
A	[-0------8------5-7-8-------10--]
D	[-0------8------5-7-8-------10--]


e	[------------]
B	[------------]
G	[------------]
D	[-0-0-3-2-0--]
A	[-0-0-3-2-0--]
D	[-0-0-3-2-0--]

let the last D5 (000xxx) ring

VERSE:during the verse u can play the chords (D5 and A#5) or plaY:
e	[----------------]
B	[----------------]
G	[-5--------------]
D	[---5--3--5------]
A	[----------------]
D	[----------------]

e	[----------------]
B	[----------------]
G	[-7-5-7---5------]
D	[----------7-5-7-]
A	[----------------]
D	[----------------]
or i play harmonics
[ Tab from: http://www.guitartabs.cc/tabs/t/the_call/shayad_tab.html ]
e	[----------------]
B	[----------------]
G	[----(7)---------]
D	[-(7)------------]
A	[----------------]
D	[----------------]
CHORUS: same as intro

The Bridge (where he screams is)

e	[-------------------------------]
B	[-------------------------------]
G	[-------------------------------]
D	[-0-0-0-0-6--0-0-0-0-5p3--------]
A	[-0-0-0-0-6--0-0-0-0-5p3--------]
D	[-0-0-0-0-6--0-0-0-0-5p3--------]

e	[-------------------------------]
B	[-------------------------------]
G	[-------------------------------]
D	[-0-0-0-0-6--0-0-0-0-3h5-5h6----]
A	[-0-0-0-0-6--0-0-0-0-3h5-5h6----]
D	[-0-0-0-0-6--0-0-0-0-3h5-5h6----]

Then After that its ( aaj bhii ussi .......)


e	[---------------------------]
B	[---------------------------]
G	[---------------------------]
D	[-8-10-12----8-10-7---------]
A	[-8-10-12----8-10-7---------]
D	[-8-10-12----8-10-7---------]

Then the final chorus which is only guitar(play in clean)

e	[---------------------------]
B	[-3------11-----8------13---]
G	[-2------10-----7------12---]
D	[-0------8------5------10---]
A	[-0------8------5------10---]
D	[-0------8------5------10---]

end on

e	[----------]
B	[-3--------]
G	[-2--------]
D	[-0--------]
A	[-0--------]
D	[-0--------]