The Call - Sab Bhula Kai Chords & Tabs

 

Sab Bhula Kai Chords & Tabs

The Call Chords & Tabs

Version: 3 Type: Tab

Sab Bhula Kai Tab

This is the correct intro on D, the old version is on E.

SOng: Sab Bhula Kai
Band: The Call
Album: Jilawatan
Tabbed by: Ahm3d_nad33m (ahm3d_nad33m@hotmail.com)

TUNING: DADGAD
I Changed It Since I Was Informed Xulfi played it on teh 5th fret.
[ Tab from: http://www.guitartabs.cc/tabs/t/the_call/sab_bhula_kai_tab_ver_3.html ]
D[-----0--5--4--7---------0--7--5--4-----------------]
A[---0--0--0--0--0------0--0--0--0--0----------------]
G[--4-4--4--4--4--4----6-6--6--6--6--6---------------]
D[-5------------------7------------------------------]
A[---------------------------------------------------]
D[---------------------------------------------------]

D[-----0------0-------0--0-------0--0----------------]
A[---0--0---0--0----0--0--0----0--0--0---------------]
G[--4-4--4-4-4--4--6-6--6--6--6-6--6--6--------------]
D[---------------------------------------------------]
A[---------------------------------------------------]
D[-5------5-------7----------7-----------------------]