The Call - Pukaar Chords & Tabs

 

Pukaar Chords & Tabs

The Call Chords & Tabs

Version: 1 Type: Tab

Pukaar Tab

Call - Pukaar by mehvar Amin

--------------------------------------------------------------------------------

Call - Pukaar
by Mehvar Amin


V = Downstroke
^ = Upstroke


Intro Strum to your hearts content :P

DOWN DOWN DOWN UP DOWN and on the next chrd shud be a UPStroke! and then on
the next one shud be a donwstroke and then on the next one shud be a upstroke.

just go wid the tune ........ but for u begginers each chrd is strummed 5 times

00:13
e|-------------------------|
B|-------------------------|
G|-------------------------| 2X but on the second time stop on the third chrd. (strum it once)
D|--12--7--9--5------------|
A|--12--7--9--5------------|
E|--10--5--7--3------------|

Verse
in the verse u have to strum the same chrds BUT!!! .... Strum each chrd 2 times and strum the first
chrd Down stroke (2 times) the the next chrd will be Upstroke 2 Times then next chrd 
2 times and
upstroke 2 times on the upstrokes try to press the strings while u Strum ...dont keep 
pressed..when u strum press then leave then press and strum again..ONLY FOR UPSTOKE!

00:26
In raston pe chal key.....
Guitar 2 comes in the 3rd time and Is struming the Chrds MUTED! and the chrds are 
till the next chrd.
[ Tab from: http://www.guitartabs.cc/tabs/t/the_call/pukaar_tab.html ]
e|---------------------------------------------------|
B|---------------------------------------------------|
G|---------------------------------------------------|
D|--12-12-----7-7----9-9----5-5----------------------| X4
A|--12-12-----7-7----9-9----5-5----------------------|
E|--10-10-----5-5----7-7----3-3----------------------|
V V ^ ^ V V ^ ^

00:51
yehi pukaar haii....

e|-------------------------|
B|-------------------------|
G|-------------------------|
D|--9~----5-3--------------| X4
A|--9~----5-3--------------|
E|--7~ ---3-1--------------|


Chorus is something like this
01:05

e|-------------------------|
B|-------------------------|
G|-------------------------|
D|---9-5-7-9-5-3-5---------| Strum as the chorus!
A|---9-5-7-9-5-3-5---------|
E|---7-3-5-7-3-1-3---------|


01:17

e|----------------------------------------------|
B|----------------------------------------------|
G|--12-12-12h10-9/7-7-7h9-7h9-9-9-9h7-7/5-5-5-5-|
D|----------------------------------------------|
A|----------------------------------------------|
E|----------------------------------------------|


i cant figure out the Second part of this solo...it starts of the same but ends diff...


Verse 2
repeat the same ....thign again for teh 2nd verse

then that SLOW bit comes which...i dunnno... :P ...the distortion part in that is simple...
and then the weird FAST part comes...which also i dont know...so this tab is prtty incomplete :P
someone plz ..if i gave it some more time i m sure i'd get it but i m lazy...
so this is it for now..bye