The Call - Kaash Chords & Tabs

 

Kaash Chords & Tabs

The Call Chords & Tabs

Version: 1 Type: Tab

Kaash Tab

   
KAASH by CALL
tabbed by ahmed nadeem

INTRO:
e[---------------------------------------------]
B[-------0----------0---------0---------0------]
G[----6----6----6-----6---6-----6---6-----6----]
D[------6---------6---------6---------6--------]
A[--4---------4---------4---------4------------]
D[---------------------------------------------]

e[---------------------------------------------]
B[--------0---------0---------0---------0------]
G[----9-----9---9-----9---9-----9---9-----9----]
D[------9---------9---------9---------9--------]
A[--7---------7---------7---------7------------]
D[---------------------------------------------]

e[---------------------------------------------]
B[-------0----------0---------0---------0------]
G[----6----6----6-----6---6-----6---6-----6----]
D[------6---------6---------6---------6--------]
A[--4---------4---------4---------4------------]
D[---------------------------------------------]
                        V ^ V  V ^ V  V
e[----------------------0-0-0--0-0-0--0--------]
B[--------0---------0---0-0-0--0-0-0--0--------]
G[----9-----9---9-----9-9-9-9--9-9-9--9--------]
D[------9---------9-----9-9-9--9-9-9--9--------]
A[--7---------7---------7-7-7--7-7-7--7--------]
D[---------------------------------------------]

VERSE

e[---------------------------------------------]
B[------0------0--------0------0----throughout-]
G[----6--6---6--6-----9--9---9--9-------the----]
D[---6-6--6-6-6--6---9-9--9-9-9--9-----Verse---]
A[--4------4------4s7------7-------------------]
D[---------------------------------------------]

[kuch to tum keh jaatey]
e[--0--------------------0---------------------]
B[--0--------------------0---------------------]
G[--4--------------------2---------------------]
D[--4--------------------2---------------------]
A[--2--------------------0---------------------]
D[---------------------------------------------]

First Chorus is same as intro
Second verse is same as 1st verse
Second Chorus is same

SOLO! (from IM Live Session)
LEAD:
e[----------9-9-9h10-9--------12-9-9-9h10p9-9h10p9-------]
B[-5s11-12-------------12--11------------------------12--]
G[-------------------------------------------------------]
D[-------------------------------------------------------]
A[-------------------------------------------------------]
D[-------------------------------------------------------]

RHYTHM (STRUM)

e[------------------------][------------------------------]
B[------------------------][------------------------------]
G[---6--------------------][------------------------------]
D[---6--------------------][--2---------------------------]
A[---4--------------------][--2---------------------------]
D[------------------------][--2---------------------------]

LEAD"
[ Tab from: http://www.guitartabs.cc/tabs/t/the_call/kaash_tab.html ]
e[-------9-14-12-9-9h10-9--------------------------------------]
B[-11-12-------------------12---5-4-5-5s12-5-4-5-4-5-5s14-5-4--]
G[-------------------------------------------------------------]
D[-------------------------------------------------------------]
A[-------------------------------------------------------------]
D[-------------------------------------------------------------]

RHYTHM (STRUM)

e[-----------------------------][------------------------------]
B[-----------------------------][------------------------------]
G[---6-------------------------][--4---------------------------]
D[---6-------------------------][--4---------------------------]
A[---4-------------------------][--2---------------------------]
D[-----------------------------][------------------------------]

LEAD:

e[----------------------------------7------------------------]
B[-4s6-7-9-9-9h10h12-10-9-7-9-7-9--9-9-9h10p9-9h10p9-7-------]
G[-----------------------------------------------------------]
D[-----------------------------------------------------------]
A[-----------------------------------------------------------]
D[-----------------------------------------------------------]

RHYTHM (STRUM)

e[---------------------------][------------------------------]
B[---------------------------][------------------------------]
G[---6-----------------------][------------------------------]
D[---6-----------------------][--2---------------------------]
A[---4-----------------------][--2---------------------------]
D[---------------------------][--2---------------------------]

LEAD:
e[-----------------------------------------------------------------------]
B[-6-7-9-14-12-9-7-9-10-9-7-9-7--7---------------------------------------]
G[-----------------------------9--9-8-9-8-6-8-6-----6-8-9-11-9-11-9-11---]
D[-----------------------------------------------9-9---------------------]
A[-----------------------------------------------------------------------]
D[-----------------------------------------------------------------------]

RHYTHM (STRUM)

e[-----------------------][------------------------------]
B[-----------------------][------------------------------]
G[---6-------------------][--4---------------------------]
D[---6-------------------][--4---------------------------]
A[---4-------------------][--2---------------------------]
D[-----------------------][------------------------------]

LEAD:

e[--------------------------------]
B[--------------------------------]
G[-9-11-9-11-11s13-13-13-13-------]
D[--------------------------------]
A[--------------------------------]
D[--------------------------------]

RHYTHM (STRUM)

e[--------------------------------]
B[--------------------------------]
G[---4----------------------------]
D[---4----------------------------]
A[---2----------------------------]
D[--------------------------------]

FInal Chorus WITH DISTORTION!

POWER CHORDS C#5(x466xxx) and E5 (222xxx)A5 (x022xx), B5 (x244xx)

C#5
kabhie tu milo gey
E5
kabhie tu kaho gey
C#5
hum jo yon na jatay
B5         A5
kash tehar jatay