The Bravery - Unconditinal Chords & Tabs

 

Unconditinal Chords & Tabs

The Bravery Chords & Tabs

Version: 1 Type: Tab 0 ratings
1 star 2 stars 3 stars 4 stars 5 stars
comments

Unconditinal Tab

   
OK, I've already tabbed the solo for The Bravery's New Single and for the benifit of
myself and others, I've put all known tabs together and I think I have the complete
tabs to the song. Credit to 100mph for the main riff.

Standard Tuning

Intro (x6)
E|-------------------------------12----------------------------------------|
B|---12-----12-----15-----15---------------------------12-----12-15--15--12|
G|-12--12-12--12-14--14-14--14-14--11-14--14-----14--12--12-12-----14--12--|
D|--------------------------------------16--16-16--16----------------------|
A|-------------------------------------------------------------------------|
E|-------------------------------------------------------------------------|

e|-------------------------------------------------------------------------|
B|-17~---------------------------------------------------------------------|
G|---------------------------------19--17-16-17--16~-----------------------|
D|-------------------------------------------------------------------------|
A|-------------------------------------------------------------------------|
E|-------------------------------------------------------------------------|

Verse 1
e|-------------------------------------------------------------------------|
B|------------------------12+----------------------------------------------|
G|-------------------------------------------------------------------------|
D|-------------------------------------------------------------------------|
A|-------------------------------------------------------------------------|
E|-------------------------------------------------------------------------|
  I spent... I wonder why, I never wonder why...

Pre-chorus (x3)                          Then,
e|-12-12-12--12--12-12--12-12-12-12---|  e|------------------|
B|-12-12-12--12--12-12--12-13-13-13---|  B|-20----17--20--19-|
G|-12-12-12--12--12-12--12-12-12-12---|  G|----16------------|
D|------------------------------------|  D|------------------|
A|------------------------------------|  A|------------------|
E|------------------------------------|  E|------------------|
  I just want,   I just want hope...

Chorus (x3)
E|-------------------------------12----------------------------------------|
B|---12-----12-----15-----15---------------------------12-----12-15--15--12|
G|-12--12-12--12-14--14-14--14-14--11-14--14-----14--12--12-12-----14--12--|
D|--------------------------------------16--16-16--16----------------------|
A|-------------------------------------------------------------------------|
E|-------------------------------------------------------------------------|
1st & 2nd time: Just want somethin', somethin for nothin',
3rd time: I'm a begger, and a chooser, I'm accused and an accuser,

e|-------------------------------------------------------------------------|
B|-17~---------------------------------------------------------------------|
G|---------------------------------19--17-16-17--16~-----------------------|
D|-------------------------------------------------------------------------|
A|-------------------------------------------------------------------------|
E|-------------------------------------------------------------------------|
  But nothings unconditional,
[ Tab from: http://www.guitartabs.cc/tabs/t/the_bravery/unconditinal_tab.html ]
Verse 1
e|-------------------------------------------------------------------------|
B|---------------------------12~12~---------------------------12~----------|
G|-------------------------------------------------------------------------|
D|-------------------------------------------------------------------------|
A|-------------------------------------------------------------------------|
E|-------------------------------------------------------------------------|
  I hold... got myself to blame, I wonder why, I never wonder why...

Pre-chorus (x3)                          Then,
e|-12-12-12--12--12-12--12-12-12-12---|  e|------------------|
B|-12-12-12--12--12-12--12-13-13-13---|  B|-20----17--20--19-|
G|-12-12-12--12--12-12--12-12-12-12---|  G|----16------------|
D|------------------------------------|  D|------------------|
A|------------------------------------|  A|------------------|
E|------------------------------------|  E|------------------|
  I just want,   I just want hope...

Chorus (x2)
E|-------------------------------12----------------------------------------|
B|---12-----12-----15-----15---------------------------12-----12-15--15--12|
G|-12--12-12--12-14--14-14--14-14--11-14--14-----14--12--12-12-----14--12--|
D|--------------------------------------16--16-16--16----------------------|
A|-------------------------------------------------------------------------|
E|-------------------------------------------------------------------------|
1st & 2nd time: Just want somethin', somethin for nothin',

Solo
e|0---2-3--5--3-5-2-3-0-2---0----------------------------------------------|
B|------------------------3---0--3------------0----------------------------|
G|---------------------------------2---0---2------2---0-2---0-----------2-4|
D|--------------------------------------------------------4---2-4-0-2-4----|
A|-------------------------------------------------------------------------|
E|-------------------------------------------------------------------------|

e|-17-12-15-14--15---17-12-15-14-12-|
B|----------------------------------|
G|----------------------------------| X2
D|----------------------------------|
A|----------------------------------|
E|----------------------------------|

Pre-chorus
e|--------------------------------------12-12-12--12--12-12--12-12-12-12---|
B|--------------------------------------12-12-12--12--12-12--12-13-13-13---|
G|--------------------------------------12-12-12--12--12-12--12-12-12-12---|
D|-------------------------------------------------------------------------|
A|-------------------------------------------------------------------------|
E|-------------------------------------------------------------------------|
  I just want, I just want hope... hope, I Just want, I just want hope

e|-12-12-12--12--12-12--12-12-12-12---|
B|-12-12-12--12--12-12--12-13-13-13---|
G|-12-12-12--12--12-12--12-12-12-12---|
D|------------------------------------|
A|------------------------------------|
E|------------------------------------|
  I Just want, I just want hope,

Chorus (x3)
E|-------------------------------12----------------------------------------|
B|---12-----12-----15-----15---------------------------12-----12-15--15--12|
G|-12--12-12--12-14--14-14--14-14--11-14--14-----14--12--12-12-----14--12--|
D|--------------------------------------16--16-16--16----------------------|
A|-------------------------------------------------------------------------|
E|-------------------------------------------------------------------------|
1st & 2nd time: Just want somethin', somethin for nothin',
3rd time: I'm a begger, and a chooser, I'm accused and an accuser,

e|-------------------------------------------------------------------------|
B|-17~---------------------------------------------------------------------|
G|---------------------------------19--17-16-17--16~-----------------------|
D|-------------------------------------------------------------------------|
A|-------------------------------------------------------------------------|
E|-------------------------------------------------------------------------|
  But nothings unconditional,

| /  slide up
| \  slide down
| h  hammer-on
| p  pull-off
| ~  vibrato
| +  harmonic
| x  Mute note
Comments