The Bravery - Tyrant Chords & Tabs

 

Tyrant Chords & Tabs

The Bravery Chords & Tabs

Version: 1 Type: Bass Tab

Tyrant Bass Tab

g------7-7-4-4------7--4-------7-7-4-4-------7--4------6-6-2-2------|
d-------------------------------------------------------------------|
a--------------------------5------------5-----------0---------------|
e-7------------7----------------------------------------------------|

g----5-2------4-4-1-1------1-4-1--|
d-3--------2------------2---------|  9x
a---------------------------------|
e---------------------------------|

g-------------------------------------------|
d-------------------------------------------|
a-22222222------------55555555--------------|  2x
e-----------33333333------------55555555----|
[ Tab from: http://www.guitartabs.cc/tabs/t/the_bravery/tyrant_btab.html ]
g------7-7-4-4------7--4-------7-7-4-4-------7--4------6-6-2-2------|
d-------------------------------------------------------------------|
a--------------------------5------------5-----------0---------------|
e-7------------7----------------------------------------------------|

g----5-2------4-4-1-1------1-4-1---|
d-3--------2------------2----------|  3x
a----------------------------------|
e----------------------------------|

g--------------------------------------------|
d--------------------------------------------|
a-22222222------------55555555---------------|  6x
e-----------33333333------------55555555-----|
Pause
g-------------------------------------------------------------------|
d-44444444--22222222----------------------55555555------------------|
a---------------------22222222--------------------------------------|
e-------------------------------33333333------------55555555--------|

g--------------------------------------------     -----|
d--------------------------------------------     -----|  Hold note
a-22222222------------55555555---------------  3x --2--|
e-----------33333333------------55555555-----     -----|