The Bravery - Public Service Announcement Chords & Tabs

 

Public Service Announcement Chords & Tabs

The Bravery Chords & Tabs

Version: 1 Type: Bass Tab 0 ratings
1 star 2 stars 3 stars 4 stars 5 stars
comments

Public Service Announcement Bass Tab

E--5------------------------------|
A---------------------------------|
D-----7--7---5-7--5-7-------------|
G---------------------------------|

E--7-------------------------------|
A----------------------------------|
D-----9--9--7-9-7-9----------------|
G----------------------------------|
[ Tab from: http://www.guitartabs.cc/tabs/t/the_bravery/public_service_announcement_btab.html ]
E----------------------------------|
A--5-------------------------------|
D-----------7-9-7-9----------------|
G-----7--7-------------------------|

E--2-----3------4------5-----------|
A----------------------------------|
D-----4-------5-----6-------7------|
G----------------------------------|
And keep repeating that all the way throught the song, bare in mind this is my first
ever tab, so ,if it's correct which i'm sure it is, enjoy!! =D
Comments