The Bravery - Out Of Line Chords & Tabs

 

Out Of Line Chords & Tabs

The Bravery Chords & Tabs

Version: 1 Type: Bass Tab

Out Of Line Bass Tab

G---------------------------------------------|
D---------0-4---------2-------0-4---------2---|  4x
A----2-2-------0-0-4-----2-2-------0-0-4------|
E---------------------------------------------|

G-----------------------------------------|
D--------0-4---------2--------0-4---------|
A---2-2-------0-0-4-----2-2--------0-0-4--|
E-----------------------------------------|

G----------------------------------------|
D----------------------------------------| 3x
A----2-2-2-2--5-5-5-5--------------------|
E----------------------5-5-5-5--0-0-0-0--|

G----------------------------------------|
D----------------------------------------|
A-2-2-2-2--5-5-5-5-----------------------|
E-------------------5-5-5-5--------------|
[ Tab from: http://www.guitartabs.cc/tabs/t/the_bravery/out_of_line_btab.html ]
G---------------------------------------------|
D---------0-4---------2-------0-4---------2---|  4x
A----2-2-------0-0-4-----2-2-------0-0-4------|
E---------------------------------------------|

G-----------------------------------------|
D--------0-4---------2--------0-4---------|
A---2-2-------0-0-4-----2-2--------0-0-4--|
E-----------------------------------------|

G-----------------------------------------|
D-----------------------------------------|  3x
A----2-2-2-2--5-5-5-5---------------------|
E----------------------5-5-5-5--0-0-0-0---|

G-----------------------------------------|
D-----------------------------------------|
A-2-2-2-2--5-5-5-5------------------------|
E-------------------5-5-5-5---------------|