The Bravery - No Brakes Chords & Tabs

 

No Brakes Chords & Tabs

The Bravery Chords & Tabs

Version: 1 Type: Bass Tab

No Brakes Bass Tab

   
NO BRAKES
The Bravery

Taken from the Island album The Bravery (2005)

Transcribed by: Damian Pamminger (TwitcheD_85@hotmail.com)

Standard tuning: E A D G

Fill 1 (1x)
|-----|
|-----|
|-3-/-|
|-----|

Fig. 1a (7x)
|---------------------------------------------------------------------------|
|-------10-----14--14-------9-----12--12------------------------------------|
|-12-12----12---------10-10---10---------------10-----12--12-------10-------|
|-----------------------------------------10-10----10---------10-10----10---|

| ----------|
|-12--12----|
| ----------|
| ----------|

Fig. 1b (1x)
|-----------------------------------------------------------------------------|
|-------10-----14--14-------9-----12--12------------------9-9-9-9-9-9-9-9-----|
|-12-12----12---------10-10---10---------7-7-7-7-7-7-7-7----------------------|
|-----------------------------------------------------------------------------|

Fig. 2 (1x)
|------------------------------------------------------------------------------|
|------------------------------------------------------------------------------|
|-3-3-3-3-3-3-3-3-5-5-5-5-5-5-5-5/-12-12-12-12-12-12-12-12-12-12-12-12-12------|
|------------------------------------------------------------------------------|
[ Tab from: http://www.guitartabs.cc/tabs/t/the_bravery/no_brakes_btab.html ]
|-----------|--------|-----------------------------------------------------------|
|-----------|-REPEAT-|-----------------------------------------------------------|
| 12-12-12\-|--------|-7-7-7-7-7-7-7-7-8-8-8-8-8-8-8-8/-12-12-12-12-12-12-12-----|
|-----------|--------|-----------------------------------------------------------|

|-------------------------------------------------------------------------------|
|-------------------------------------------------------------------------------|
|-12-12-12-12-12-12-12-12-12\-7-7-7-7-7-7-7-7-8-8-8-8-8-8-8-8/-12-12-12-12------|
|-------------------------------------------------------------------------------|

|-----------------------------------------|
|-----------------------------------------|
|-12-12-12-12-10-10-10-10-10-10-10-10-----|
|-----------------------------------------|

Fill 2 (1x)
|-------|
|-------|
|-------|
|-8-----|

Fill 1 (1x)
Fig. 1a (5x)
Fig. 1b (1x)
Fig. 2 (1x)

Fill 3 (1x)
| ------------------------------------|
| ------------------------------------|
|-7-7-7-7-7-7-7-7-8-8-8-8-8-8-8-8-----|
| ------------------------------------|

Fig. 3 (1x)
|-----------------------------------------------------------------------|
|-----------------------------------------------------------------------|
| -----------------------------------7-7-7-7-7-7-7-7-8-8-8-8-8-8-8-8----|
| -8-8-8-8-8-8-8-8-8-8-8-8-8-8-8-8--------------------------------------|

|----------| -------------------------------------------------------------------|
| -REPEAT--| -------------------------------------------------------------------|
| two-more-| ----------------------------------7-7-7-7-7-7-7---5-5-5-5-5-5-5----|
| --times---|-8-8-8-8-8-8-8-8-8-8-8-8-8-8-8-8-----------------------------------|

End (1x)
|------------|
|------------|
|-3----------|
|------------|