The Bravery - Honest Mistake Chords & Tabs

 

Honest Mistake Chords & Tabs

The Bravery Chords & Tabs

Version: 3 Type: Bass Tab

Honest Mistake Bass Tab

I know this is a really long tab but it is the entire song and
I know it is at least 94% right.  Please RATE even if it sucks!

The Bravery-An Honest Mistake
G----------7-----7-----7-----7-----10-----10-----10-----10-|
D----------------------------------------------------------|
A--12/--5-----5-----5-----5-----8------8------8------8-----|
E----------------------------------------------------------|

G-----5-----5-----5-----5---------------------4-----5---|
D-----------------------------5-----5-------------------|
A--3-----3-----3-----3---------------------2-----3------|
E--------------------------3-----3----------------------|

G----------7-----7-----7-----7-----10-----10-----10-----10-|
D----------------------------------------------------------|
A-------5-----5-----5-----5-----8------8------8------8-----|
E----------------------------------------------------------|

G----5-----5-----5-----5-----5-----9------12-----10-|
D---------------------------------------------------|
A-3-----3-----3-----3-----3-----7-----10------8-----|
E---------------------------------------------------|
Repeat the lines above 4 times except for the slide (12/) in the beginning.


G-----7-----7-----7-----7-----7-----7-----7-----7-----10---|
D----------------------------------------------------------|
A--5-----5-----5-----5-----5-----5-----5-----5-----8-------|
E----------------------------------------------------------|

G-----10-----10-----10-------------------4-----5-----------|
D--------------------------5-----5-------------------------|
A--8------8------8--------------------2-----3--------------|
E-----------------------3-----3----------------------------|

G-----7-----7-----7-----7-----7-----7-----7-----7-----10---|
D----------------------------------------------------------|
A--5-----5-----5-----5-----5-----5-----5-----5-----8-------|
E----------------------------------------------------------|

G-----10-----10-----10--12-12-12-12-12-12-12-12------------|
D----------------------------------------------------------|
A--8------8------8------10-10-10-10-10-10-10-10------------|
E----------------------------------------------------------|

G-----7-----7-----7-----7----------------------------------|
D-----------------------------8-----8-----8-----8----------|
A--5-----5-----5-----5-------------------------------------|
E--------------------------6-----6-----6-----6-------------|

G-----10-----10-----10-----10------12------12-----9-----9--|
D----------------------------------------------------------|
A--8------8------8------8------10------10------7-----7-----|
E----------------------------------------------------------|
Play the 2 lines above twice


G-----7-----7-----7-----7----------------------------------|
D-----------------------------8-----8-----8-----8----------|
A--5-----5-----5-----5-------------------------------------|
E--------------------------6-----6-----6-----6-------------|

G-----10-----10-----10-----10-----10-----10-----10-----10--|
D----------------------------------------------------------|
A--8------8------8------8------8------8------8------8------|
E----------------------------------------------------------|

G-----12-----12-----12-----12-----12-----12-----12-----12--|
D----------------------------------------------------------|
A--10-----10-----10-----10-----10-----10-----10-----10-----|
E----------------------------------------------------------|

G----------7-----7-----7-----7-----10-----10-----10-----10-|
D----------------------------------------------------------|
A-------5-----5-----5-----5-----8------8------8------8-----|
E----------------------------------------------------------|

G----5-----5-----5-----5-----5-----9------12-----10--------|
D----------------------------------------------------------|
A-3-----3-----3-----3-----3-----7-----10------8------------|
E----------------------------------------------------------|

G----------7-----7-----7-----7-----10-----10-----10-----10-|
D----------------------------------------------------------|
A-------5-----5-----5-----5-----8------8------8------8-----|
E----------------------------------------------------------|

G-----5-----5-----5-----5-----------------4-----5---|
D-----------------------------5-----5---------------|
A--3-----3-----3-----3-----------------2-----3------|
E--------------------------3-----3------------------|
[ Tab from: http://www.guitartabs.cc/tabs/t/the_bravery/honest_mistake_btab_ver_3.html ]
G----------7-----7-----7-----7-----10-----10-----10-----10-|
D----------------------------------------------------------|
A-------5-----5-----5-----5-----8------8------8------8-----|
E----------------------------------------------------------|

G----5-----5-----5-----5-----5-----9------12-----10-|
D---------------------------------------------------|
A-3-----3-----3-----3-----3-----7-----10------8-----|
E---------------------------------------------------|

G-----7-----7-----7-----7-----7-----7-----7-----7-----10---|
D----------------------------------------------------------|
A--5-----5-----5-----5-----5-----5-----5-----5-----8-------|
E----------------------------------------------------------|

G-----10-----10-----10--------------------4-----5----------|
D--------------------------5-----5-------------------------|
A--8------8------8---------------------2-----3-------------|
E-----------------------3-----3----------------------------|

G-----7-----7-----7-----7-----7-----7-----7-----7-----10---|
D----------------------------------------------------------|
A--5-----5-----5-----5-----5-----5-----5-----5-----8-------|
E----------------------------------------------------------|

G-----10-----10-----10--12-12-12-12-12-12-12-12------------|
D----------------------------------------------------------|
A--8------8------8------10-10-10-10-10-10-10-10------------|
E----------------------------------------------------------|


G-----7-----7-----7-----7----------------------------------|
D-----------------------------8-----8-----8-----8----------|
A--5-----5-----5-----5-------------------------------------|
E--------------------------6-----6-----6-----6-------------|

G-----10-----10-----10-----10------12------12-----9-----9--|
D----------------------------------------------------------|
A--8------8------8------8------10------10------7-----7-----|
E----------------------------------------------------------|
Play the 2 line above twice


G-----7-----7-----7-----7----------------------------------|
D-----------------------------8-----8-----8-----8----------|
A--5-----5-----5-----5-------------------------------------|
E--------------------------6-----6-----6-----6-------------|

G-----10-----10-----10-----10-----10-----10-----10-----10--|
D----------------------------------------------------------|
A--8------8------8------8------8------8------8------8------|
E----------------------------------------------------------|

G-----12-----12-----12-----12-----12-----12-----12-----12--|
D----------------------------------------------------------|
A--10-----10-----10-----10-----10-----10-----10-----10-----|
E----------------------------------------------------------|

Drum solo (Rest)

G----------------------------------------------------------|
D----------------------------------------------------------|
A--5-5-5-5--12/--5-5-5-5--12/--5-5-5-5--12/--55555555------|
E----------------------------------------------------------|

G-----7-----7-----7-----7----------------------------------|
D-----------------------------8-----8-----8-----8----------|
A--5-----5-----5-----5-------------------------------------|
E--------------------------6-----6-----6-----6-------------|

G-----10----10----10----10------12-----12---10----9--------|
D----------------------------------------------------------|
A--8-----8-----8-----8------10-----10-----8----7-----------|
E----------------------------------------------------------|
Play the 2 lines above twice

G-----7-----7-----7-----7----------------------------------|
D-----------------------------8-----8-----8-----8----------|
A--5-----5-----5-----5-------------------------------------|
E--------------------------6-----6-----6-----6-------------|

G-----10-----10-----10-----10-----10-----10-----10-----10--|
D----------------------------------------------------------|
A--8------8------8------8------8------8------8------8------|
E----------------------------------------------------------|

G-----12-----12-----12-----12-----12-----12-----12-----12--|
D----------------------------------------------------------|
A--10-----10-----10-----10-----10-----10-----10-----10-----|
E----------------------------------------------------------|

G----15----15----15----15----15----15----15----15---15-----|
D----------------------------------------------------------|
A-13----13----13----13----13----13----13----13------13-----|
E----------------------------------------------------------|
Let the last 2 notes ring

PLEASE RATE!!!  Kittycatie7894