The Bosshoss - Have Love Will Travel Chords & Tabs

 

Have Love Will Travel Chords & Tabs

The Bosshoss Chords & Tabs

Version: 1 Type: Bass Tab 0 ratings
1 star 2 stars 3 stars 4 stars 5 stars
comments

Have Love Will Travel Bass Tab

   
-----------------------------------------------------------------------------
                  Have Love Will Travel - The BossHoss
-----------------------------------------------------------------------------

Tabbed By : max

Tuning:
[ Tab from: http://www.guitartabs.cc/tabs/t/the_bosshoss/have_love_will_travel_btab.html ]
G|-------------0------------------------------------------------------------|
D|-----1-3-3-1---3-1-3-1----------------------------------------------------|
A|-3-3-------------------1-3------------------------------------------------|
E|--------------------------------------------------------------------------|

G|-0-0-0-0-0-0--------------------------------------------------------------|
D|-------------4-4-3--------------------------------------------------------|
A|--------------------------------------------------------------------------|
E|--------------------------------------------------------------------------|



| /  slide up
| \  slide down
| h  hammer-on
| p  pull-off
| ~  vibrato
| +  harmonic
| x  Mute note
=============================================================================
Comments