The Blacktop Cadence - Last Night After I Bought The Wine Chords & Tabs

 

Last Night After I Bought The Wine Chords & Tabs

The Blacktop Cadence Chords & Tabs

Version: 1 Type: Bass Tab 0 ratings
1 star 2 stars 3 stars 4 stars 5 stars
comments

Last Night After I Bought The Wine Bass Tab

   
Band: The Blacktop Cadence

Album: Chemistry for Changing Times

Song: Last Night... After I Bought the Wine

Listen to song for correct timing

Bass comes in around :17

G|-----------------------------------------------|
D|-----------------------------------------------|
A|-7-7-7-7-7-7-7-7-7-7-3-3-3-3-3-5-5-5-5-5-5-5-5-|
E|-----------------------------------------------|

At around :46...

G|----------------------|
D|----------------------|
A|-7-------3--------5---|
E|----------------------|  X2

Goes back to first riff around the 1:03 mark

Bass stops at 1:33

Bass comes back in at 1:48 with the first riff, but sped up a bit.
[ Tab from: http://www.guitartabs.cc/tabs/t/the_blacktop_cadence/last_night_after_i_bought_the_wine_btab.html ]
This riff kicks in at 2:31... I'm not totally sure this is right, but
its the closest I'm getting.

"chorus"
G|-----------------------------------------------------------------|
D|-----------------------------------------------------------------|
A|-----------------------------------------------------------------|
E|-3-3-3-3-3-3-3-3-5-5-5-5-5-5-5-5-7-7-7-7-7-7-7-7-8-8-8-8-8-8-8-8-|

Bass stops at 3:27

Bass comes back in at 3:41 with...

G|------------------------------------------------|
D|------------------------------------------------|
A|-7-7-7-7-7----7-7-7-7-7----3-3-3-3-3--5-5-5-5-5-|
E|------------------------------------------------|

Continues until 4:06 where it goes back into the chorus riff until the end.

Enjoy!
Comments