The Black Mages - Vamo Alla Flamenco Chords & Tabs

 

Vamo Alla Flamenco Chords & Tabs

The Black Mages Chords & Tabs

Version: 3 Type: Tab

Vamo Alla Flamenco Tab

   
Vamo' Alla Flamenco
The Black Mages
The Black Mages II - The Skies Above

Standard tuning
----------------------------------------------------------
Vamo' Alla Flamenco

Intro
(Classical guitar)


    Am        Fmaj7/A    Am6      Fmaj7/A
E|--0---------0----------0--------0--------|
B|--1---------1----------1--------1--------|
G|--2---------2----------2--------2--------|
D|--2---------3----------4--------3--------|
A|--0---------0----------0--------0--------|
E|-----------------------------------------|

[ Tab from: http://www.guitartabs.cc/tabs/t/the_black_mages/vamo_alla_flamenco_tab_ver_3.html ]
    Guitar 1:
E|--------------1------0---1---3---5-----------8---7---|
B|--0---1---3------------------------------------------|
G|-----------------------------------------------------|
D|-----------------------------------------------------|
A|-----------------------------------------------------|
E|-----------------------------------------------------|
 |
 |  Guitar 2:
 |              Am                 Fmaj7/A         Am6
E|--------------0------------------0---------------0---|
B|--------------1------------------1---------------1---|
G|--------------2------------------2---------------2---|
D|--------------2------------------2---------------4---|
A|--------------0------------------0---------------0---|
E|-----------------------------------------------------|


E|--7---5----------------3----0---1p0---0------|
B|----------8---6---------------------3--------|
G|---------------------------------------------|
D|---------------------------------------------|
A|---------------------------------------------|
E|---------------------------------------------|
 |
 |              Fmaj7/A       Am
E|--------------0-------------0----------------|
B|--------------1-------------1----------------|
G|--------------2-------------2----------------|
D|--------------3-------------2----------------|  End intro.
A|--------------0-------------0----------------|
E|---------------------------------------------|

----------------------------------------------------------
Tabbed by: Shaun Molthop
The rest is comin' soon!