The Black Mages - Maybe Im A Lion Chords & Tabs

 

Maybe Im A Lion Chords & Tabs

The Black Mages Chords & Tabs

Version: 1 Type: Tab 0 ratings
1 star 2 stars 3 stars 4 stars 5 stars
comments

Maybe Im A Lion Tab

   
-------------------------------------------------------------------------------
			     Maybe I'm a Lion - The Black Mages
-------------------------------------------------------------------------------
Tabbed by:  John McCormick
Email:  jinzo_54@hotmail.com

Tuning: eBGDAD

I was mucking around one day and picked this song up.  I think everything is accurate.
Note that this tab does not contain the solo because I dont think I could have picked
it up :'(


Intro
e|--------------------------------------------------------------------------|
B|--------------------------------------------------------------------------|
G|--------------------------------------------------------------------------|
D|--------------------------------------------------------------------------|
A|------------------------------------------------0-3--0-3-5----------------|
D|--0-0-0-0-3--2--0-0-0-0-5--3--0-0-0-0-3--2--3-5---------------------------|

e|--------------------------------------------------------------------------|
B|--------------------------------------------------------------------------|
G|--------------------------------------------------------------------------|
D|--------------------------------------------------------------------------|
A|--------------------------------------------------------------------------|
D|-0-0-0-0-3--2--0-0-0-0-5--3--1-1-1--1-1-1--1-1-1--------------------------|

Verse 1
e|--------------------------------------------------------------------------|
B|--------------------------------------------------------------------------|
G|-------------------------------------------------------------x8-----------|
D|-0-0-0-3--0-0-0-3--0-6-5--0-0-0-3--0-0------------------------------------|
A|-0-0-0-3--0-0-0-3--0-6-5--0-0-0-3--0-0-----0-3--0-3-5---------------------|
D|-0-0-0-3--0-0-0-3--0-6-5--0-0-0-3--0-0-3-5--------------------------------|

e|--------------------------------------------------------------------------|
B|--------------------------------------------------------------------------|
G|--------------------------------------------------------------------------|
D|--------------------------------------------------------------------------|
A|-0-1--0-1--0-1--0-1--3----0-1--0-1--0-1--0-1--3---------------------------|
D|-0-1--0-1--0-1--0-1--3----0-1--0-1--0-1--0-1--3---------------------------|

Verse 2
e|--------------------------------------------------------------------------|
B|--------------------------------------------------------------------------|
G|---------------------------3--2-------------------------x2----------------|
D|-2--2--2-5-2-0-2--2--5--2--3--2--2--2--2-5-2-0-2--------------------------|
A|-2--2--2-5-2-0-2--2--5--2--1--0--2--2--2-5-2-0-2--------------------------|
D|-2--2--2-5-2-0-2--2--5--2--------2--2--2-5-2-0-2--------------------------|

Verse 3
e|--------------------------------------------------------------------------|
B|--------------------------------------------------------------------------|
G|-----------------------------------------------x4-------------------------|
D|--------------------------------------------------------------------------|
A|--------------------------------------------------------------------------|
D|-0-0-0--0-0-0--------0-0-0--0-0-0-----------------------------------------|
  |_______________PM________________|


Bridge
e|--------------------------------------------------------------------------|
B|--------------------------------------------------------------------------|
G|--------------------------------------------------------------------------|
D|--------------------------------------------------------------------------|
A|---------------------0-1-0------------------------------------------------|
D|-2-3-2-0-2-3-5-2-3-5-------5-3-2-2-3-0-2--2-3-0-2--2-3-0-2----------------|
[ Tab from: http://www.guitartabs.cc/tabs/t/the_black_mages/maybe_im_a_lion_tab.html ]
e|--------------------------------------------------------------------------|
B|--------------------------------------------------------------------------|
G|--------------------------------------------------------------------------|
D|-0------------------------------------------------------------------------|
A|-----------------------0-1-0----------------------------------------------|
D|---0-2-3-0-2-3-5-2-3-5-------5-3-2-2-3-0-2--2-3-0-2--2-3-0-2--------------|

e|--------------------------------------------------------------------------|
B|--------------------------------------------------------------------------|
G|--------------------------------------------------------------------------|
D|-0--2--3--5--6------------0--2--3--5--6----7------------------------------|
A|-0--2--3--5--6------------0--2--3--5--6----7------------------------------|
D|-0--2--3--5--6------------0--2--3--5--6----7------------------------------|

Keyboard/Guitar Solo Backing
e|--------------------------------------------------------------------------|
B|--------------------------------------------------------------------------|
G|----------------------------------------------------------x4--------------|
D|--------------------------------------------------------------------------|
A|--------------------------------------------------------------------------|
D|-0-0--0-0-0--0-0-0--0-0-0--0-0-0--0-0-0--0-0-0--0-0-0---------------------|
  |_________________________PM_________________________|

e|--------------------------------------------------------------------------|
B|--------------------------------------------------------------------------|
G|-----------------------------------------------------x4-------------------|
D|-7-7-7-7-7-7-7-7-7-7-7-7-7-7-7-7------------------------------------------|
A|-7-7-7-7-7-7-7-7-7-7-7-7-7-7-7-7------------------------------------------|
D|-7-7-7-7-7-7-7-7-7-7-7-7-7-7-7-7------------------------------------------|
  |______________PM_______________|

e|--------------------------------------------------------------------------|
B|--------------------------------------------------------------------------|
G|-777777773333333355555555--------33333333555555556666888899999999---------|
D|-7777777733333333555555553333333333333333555555556666888899999999---------|
A|-5555555511111111333333333333333311111111333333334444666677777777---------|
D|-------------------------33333333-----------------------------------------|

e|--------------------------------------------------------------------------|
B|--------------------------------------------------------------------------|
G|-101010101010101012121212121212127777777710101010101010105555555599999999-|
D|-101010101010101012121212121212127777777710101010101010106666666699999999-|
A|--8-8-8-8-8-8-8-8101010101010101055555555-8-8-8-8-8-8-8-84444444477777777-|
D|--------------------------------------------------------------------------|

e|--------------------------------------------------------------------------|
B|--------------------------------------------------------------------------|
G|-10--11--12--13--14------x2-----Then----------------------2-3-2-----------|
D|-10--11--12--13--14---------------------0-2-3--2-3-5--3-5-------5-3-2-0---|
A|--8---9--10--11--12-------------------------------------------------------|
D|--------------------------------------------------------------------------|

Play again to back the guitar solo.  

Solo Outro

e|--------------------------------------------------------------------------|
B|--------------------------------------------------------------------------|
G|--------------------------x3----------------------------------------------|
D|-0--0-0-3-0-0-0--0-6-5-3-------0-2-3-5-7-9-11-12-14-15-17-19-21-23-24-----|
A|-0--0-0-3-0-0-0--0-6-5-3-------0-2-3-5-7-9-11-12-14-15-17-19-21-23-24-----|
D|-0--0-0-3-0-0-0--0-6-5-3-------0-2-3-5-7-9-11-12-14-15-17-19-21-23-24-----|

Song Outro (follows on from verse 2)

e|--------------------------------------------------------------------------|
B|--------------------------------------------------------------------------|
G|--------------------------------------------------------------------------|
D|-4-5-7-9----------2-------------------------------------------------------|
A|-4-5-7-9----------2-------------------------------------------------------|
D|-4-5-7-9----------2-------------------------------------------------------|


Order of Play:

Intro
Verse 1
Verse 2
Verse 3
Verse 1
Bridge
Keyboard/Guitar Solo Backing x2
Solo Outro
Verse 1
Verse 2
Song Outro

=============================================================================
Comments