The Black Mages - For Those Who Fight Further Chords & Tabs

 

For Those Who Fight Further Chords & Tabs

The Black Mages Chords & Tabs

Version: 1 Type: Bass Tab

For Those Who Fight Further Bass Tab

   
it got kinda messed up wen i copied it of my pc but do the best u can


G|-2------0-1-2----------------8-7-------0-3-4-5------------4-5-5-5-4-3-|
D|-------2-----------------567------------------------------------------|
A|----------------------------------------------------------------------|
E|----------------------------------------------------------------------|

Part A 
G|-------------------|    |--9-----7-----5--------|
D|-567-777-777-777---|    |----77---77----7-567---|
A|-------------------| x3 |-----------------------| 
E|-------------------|    |-----------------------|

G|----------------------------|    |-12--------10-------8------|
D|--8910-101010-101010-101010-|    |----1010-----1010-10-1098--|
A|----------------------------| x3 |---------------------------|
E |---------------------------|    |---------------------------|
[ Tab from: http://www.guitartabs.cc/tabs/t/the_black_mages/for_those_who_fight_further_btab.html ]
G|----------9------------------7--0-------------------0-0-2-2-2-2-1-1-1-1-|    |-22222222-|
D|--77-91012--9----1010-975--------3-3-3-3-3-3-3--------------------------|    |----------|
A|------------------------------------------------------------------------| x2 |----------|
E|------------------------------------------------------------------------|    |----------|

Part B
G|----------789----------|    |-000000234-5555555----|    |-222222456-777777701-|
D|-77-56-77------77-567--|    |-------------------34-|    |---------------------|
A|---7-------------7-----| x4 |----------------------| x2 |---------------------|
E|-----------------------|    |----------------------|    |---------------------|

G|-22222222-33333333-|
D|-------------------|
A|-------------------|
E|-------------------|

Part C
G|-77777755-|    |-7-----------------9--9--------------9----------|
D|----------|    |---7-10-975--777777--7--6-7777777-----7-10-11---| Back to 
A|----------| x3 |------------------------------------------------| beginning of
E|----------|    |------------------------------------------------| C

 Then
G|-77777755-|    |-7-----------------9--9----------------99-----|
D|----------|    |---7-10-975--777777--7----10101010-9999---667-|
A|----------| x3 |----------------------------------------------|
E|----------|    |----------------------------------------------|