The Beautiful Girls - Water Chords & Tabs

 

Water Chords & Tabs

The Beautiful Girls Chords & Tabs

Version: 1 Type: Tab 0 ratings
1 star 2 stars 3 stars 4 stars 5 stars
comments

Water Tab

The Beautiful Girls - Water

INTRO:

|---------------|---------------|---------------|---------------|
|---------------|-0h1r0---------|---------------|---------------|
|------------0--|--------0------|---------------|---------------|
|-------0-------|------------3--|---------------|-3h5r3---------|
|---------------|---------------|-1-----3-/-5---|---------5---3-|
|--3------------|---------------|---------------|---------------|
[ Tab from: http://www.guitartabs.cc/tabs/t/the_beautiful_girls/water_tab.html ]
|---------------|---------------|---------------|---------------|
|---------------|---------------|---------------|---------------|
|---------------|---------------|---------------|---------------|
|---------------|---------------|---------------|---------------|
|-----------1---|-3h5h3---1-----|---------------|-1-------------|
|-1------1------|-------------1-|--3----3--3--3-|---------------|

|---------------|---------------|---------------|---------------|
|---------------|-0h1r0---------|---------------|---------------|
|------------0--|--------0------|---------------|---------------|
|-------0-------|------------3--|---------------|-3h5r3---------|
|---------------|---------------|-1-----3-/-5---|---------5---3-|
|--3------------|---------------|---------------|---------------|

|---------------|---------------|---------------|---------------|
|---------------|---------------|---------------|---------------|
|---------------|---------------|---------------|---------------|
|---------------|---------------|---------------|---------------|
|-----------1---|-3h5h3---1-----|---------------|---------------|
|-1------1------|-------------1-|--3~~~~~~~~~~~-|---------------|

Thanks guys, this is a great song! Steve
Comments