The Beautiful Girls - La Mar The Ocean Chords & Tabs

 

La Mar The Ocean Chords & Tabs

The Beautiful Girls Chords & Tabs

Version: 1 Type: Tab 0 ratings
1 star 2 stars 3 stars 4 stars 5 stars
comments

La Mar The Ocean Tab

The Beautiful Girls - La Mar (the ocean)

Dropped D tuning.


The whole song is structured around these four chords. Listen to the
CD for timing. 


E  +--------------------------------------------------------------+
B  |--------------------------------------------------------------|
G  |---------5----------------------------------------------------|
D  |----1----5---5----6-------------------------------------------|
A  |----1----3---5----6-------------------------------------------|
D  +----1--------5----6-------------------------------------------+


This day is getting older and the fading light is beautiful
This wind is blowing colder and too soon i'll feel its pull
still i took all my chances burned myself an even scar trying to learn my lessons well
and i don't have the answers for those questions anymore, only love can be both heaven and hell
so steady up steady up your heart for the road is long ahead
i'll be with you even though we are apart  but this road is yours to tread
and so it goes, and so it goes and so it goes, slows your mind


SOLO


E  +--------------------------------------------------------------+
B  |--------------------------------------------------------11----|
G  |--------------------------------------10b11r8--10b11r10----10-|
D  |---------------------8----8----8s10---------------------------|
A  |---8--6---8--6--8s10---10---10--------------------------------|
D  +--------------------------------------------------------------+

[ Tab from: http://www.guitartabs.cc/tabs/t/the_beautiful_girls/la_mar_the_ocean_tab.html ]
E  +--------------------------------------------------------------+
B  |-11------------------------11-----11-----11-----11------------|
G  |---10b11r8------------10h12--10h12--10h12--10h12----(16 times)|
D  |------------10--8---------------------------------------------|
A  |--------------------------------------------------------------|
D  +--------------------------------------------------------------+


E  +--------------------------------------------------------------+
B  |-10s11--------------------------------------------------------|
G  |-------12-10-8---------------------8-8h10r8----8--------------|
D  |-----------------8s10-8---------------------10---10-8---------|
A  |-------------------------10--8--10----------------------------|
D  +--------------------------------------------------------------+


E  +--------------------------------------------------------------+
B  |--------------------------------------------------------------|
G  |--------------------8-8h10r8----8-----------------------------|
D  |-8s10-8----------------------10---10-8------------------------|
A  |----------10--8--10-------------------------------------------|
D  +--------------------------------------------------------------+


E  +-------------------------------------------------------------------------+
B  |-------------------------------------------------------------------------|
G  |--------------------8-8h10r8----8----------------------------8-8-8-8-8s0-|
D  |-8s10-8----------------------10---10-8----8h10-10-10-10-8h10-------------|
A  |----------10--8--10------------------------------------------------------|
D  +-------------------------------------------------------------------------+


i've grown old on this ocean, gave her all my stronger years
gave my wife my devotion when she died the ocen my tears
i've tried to teach you well son, all of everything i knew of how to live this life be true
don't bow your head to no one and no matter what you do if you start then see it through


so steady up steady up your heart for the road is long ahead
i'll be with you even though we are apart  but this road is yours to tread
and so it goes, and so it goes and so it goes, slows your mind


Enjoy,
Neeky xoxo
Comments