The Beautiful Girls - High Rolling Chords & Tabs

 

High Rolling Chords & Tabs

The Beautiful Girls Chords & Tabs

Version: 1 Type: Tab 0 ratings
1 star 2 stars 3 stars 4 stars 5 stars
comments

High Rolling Tab

   
The Beautiful Girls - High Rolling
Album: Learn Yourself

Standard tuning

h = hammer on
/ = slide up to note


intro/verse

riff that leads into each progression

e:--------------------|
B:--------------------|
G:--------------------|
D:-/7--5--------------|
A:---------7---5------|
E:--------------------|


e:--------------------------------------|
B:---------------------6----------------|
G:---------------7-----7----------------|
D:-----5---x--7--7--7--7--x-x-3-3--x-3--|
A:-5---5---x--5--5--5--5--x-x-3-3--x-3--| then to riff
E:-3---3---x--------------x-x-1-1--x-1--|


Pre Chorus

lead in with orifinal riff Then

  Dm	    C	          G           F G
[ Tab from: http://www.guitartabs.cc/tabs/t/the_beautiful_girls/high_rolling_tab.html ]
e:----------------------------------------|
B:----6--x--5-5--5--5-x-x-----------------|
G:-7--7--x--5-5--5--5-x-x-------4---------|
D:-7--7--x--5-5--5--5-x-x-5-5-x-5-x-5-3-5-|
A:-5--5--x----3--3----x-x-5-5-x-5-x-5-3-5-|
E:------------------------3-3-x-3-x-3-1-3-|

on the last time play the G for a bit longer,
listen to it and you'll know what I mean.


Chorus

   G	  C	    F	   C
e:-----------------------------------------|
B:-----------------------------1---1---1---|
G:-4--4---0-0--0-0--2--2---0-0-0---0---0---|
D:-5--5---2-2--2-2--3--3---2-2-0h2-0h2-0h2-|
A:-5--5---3-3--3-3--3--3---3-3-3---3---3---|
E:-3----------------1----------------------|

timing isn't depicted exactly, you'll have to listen to
the recording. try pulling off the 2 to 0 in the C chord
as well.

Finish with the first riff.
Enjoy
Neeky xoxo
Comments