The Beatles - Day Triper Chords & Tabs

 

Day Triper Chords & Tabs

The Beatles Chords & Tabs

Version: 1 Type: Tab 0 ratings
1 star 2 stars 3 stars 4 stars 5 stars
comments

Day Triper Tab

Verse

E/---------------------
B/---------------------
G/---------------------
D/---------2-0--4---0-2
A/-------2-----2--2----
E/0--3-4---------------
[ Tab from: http://www.guitartabs.cc/tabs/t/the_beatles/day_triper_tab.html ]
Verse Variation
E/---------------------
B/---------------------
G/---------2-0--4---0-2
D/-------2-----2--2----
A/0--3-4---------------
E/---------------------
Comments