The Barbs - Massive Crush Chords & Tabs

 

Massive Crush Chords & Tabs

The Barbs Chords & Tabs

Version: 1 Type: Tab 0 ratings
1 star 2 stars 3 stars 4 stars 5 stars
comments

Massive Crush Tab

Guys out there this is my first tab. This is The Barbs' Massive Crush.
Hope you enjoy it. OK HERE GOES. For more information on this band. Go to www.thebarbs.co.uk

Tabbed by: Francis Flores/male/16/Philippines
Tuning: Standard

Intro 1:

Guitar 1

|----------------------||
|----------------------||
|---------------------*||8x
|---------------------*||
|---------------02-----||
|-0-0-0--3-3-3---------||


Intro 2

Guitar 1 and Guitar 2
                                   *NH-------|  
|-------------------||   |--------------------|
|-------------------||   |--------------------|
|------------------*||3x |--------------------|
|------------------*||   |--------------------|
|---------------02--||   |--------------------|
|-0-0-0--3-3-3------||   |-0-0-0--30--3-3-3---|

Verses (do intro 1 riff 6x)

Fill 1(before chorus
|----|----------|
|----|----------|
|----|--whole---|
|----|--rest----|
|-2--|----------|
|-0--|----------|
[ Tab from: http://www.guitartabs.cc/tabs/t/the_barbs/massive_crush_tab.html ]
Chorus (do intro 1 riff)

Fill 2

|------|------------|
|------|------------|
|------|------------|
|--2---|-2-2-2-2-2--|
|--2---|-2-2-2-2-2--|
|--0---|-0-0-0-0-0--|
Guitar Solo

|-0000000000000000-10101010101010-10101010-1010--|
|-5555555555555555-8 8 8 8 8 8 8 -8 8 8 8 -8 8 --|
|------------------------------------------------|
|------------------------------------------------|
|------------------------------------------------|
|------------------------------------------------|

Legend:
NH- Natural Harmonics
* - Lightly touch the string to the middle (real center) of the 3rd fret.

That's all I can give to you by British punk-indie rock band who came here in the
Philippines by last week of November 2004. Their music is so unbelievable. I think it's
not enough coz I seldom hear that song.
Any corrections or comments, post it in the comments section of the site. I'm open for
that because this is my first tab. Or maybe email me cradleoflife212121@yahoo.com.
Comments