The Automatic - Monster Chords & Tabs

 

Monster Chords & Tabs

The Automatic Chords & Tabs

Version: 1 Type: Tab

Monster Tab

   
-------------------------------------------------------------------------------
			     Monster - The Automatic
-------------------------------------------------------------------------------
Tabbed by: Aron S*
Email: goodsum@hotmail.com

Tuning: Standard

*i've revised the beginning of the verse, i think it sounds better this way


Intro:

e|---------------------------------|
B|--5-5-/15--15-\12-13-12--7-7-8---|
G|---------------------------------|
D|---------------------------------| X3
A|---------------------------------|
E|---------------------------------|

e|-------------------------15-15-14\12--|
B|--5-5-/15--15-\12-13-12---------------|
G|--------------------------------------|
D|--------------------------------------|
A|--------------------------------------|
E|--------------------------------------|


Verse:

e|-12----12----12----12----12----12----12----12-----|
B|-13-12-13-12-13-12-13-12-13-12-13-12-13-12-13-12--|
G|--------------------------------------------------|
D|--------------------------------------------------|
A|--------------------------------------------------|
E|--------------------------------------------------|


e|----------------------------------------------------------|
B|--10/15--10/15--10/15--10/15--10/15--10/15--10/15--10/15--|
G|----------------------------------------------------------|
D|----------------------------------------------------------|
A|----------------------------------------------------------|
E|----------------------------------------------------------|


Chorus:

e|-------------------------------------------------------------------|
B|-------------------------------------------------------------------|
G|----------------------------------9-9-9-9-9-9-9-9-7-7-7-7-7-7-7-7--|
D|--7-7-7-7-7-7-7-7-9-9-9-9-9-9-9-9-9-9-9-9-9-9-9-9-7-7-7-7-7-7-7-7--|
A|--7-7-7-7-7-7-7-7-9-9-9-9-9-9-9-9-7-7-7-7-7-7-7-7-5-5-5-5-5-5-5-5--|
E|--5-5-5-5-5-5-5-5-7-7-7-7-7-7-7-7----------------------------------|


Solo:

e|-----------------------------------------|
B|-----------------------------------------|
G|--9--/11--/12--\14--\12--\11--/19-19-19--|
D|--x---x----x----x----x----x----x--x--x---| x3
A|--7--/9---/10--\12--\10--\9---/17-17-17--|
E|-----------------------------------------|

e|-------------------------------------------|
B|-------------------------------------------|
G|--9--/11--/12--\14--\12--/11--/9--\12--\9--|
D|--x---x----x----x----x----x----x---x---x---| 
A|--7--/9---/10--\12---\10--/9--/7--\10--\7--|
E|-------------------------------------------|


Bridge:
[ Tab from: http://www.guitartabs.cc/tabs/t/the_automatic/monster_tab.html ]
e|-------------------------------------------------------------|
B|-------------------------------------------------------------|
G|--9-xx-9-9-9-9--12-11--9-xx-9-9-9-9--11/12\11--9-xx-9-9-9-9--|
D|--9-xx-9-9-9-9--12-11--9-xx-9-9-9-9--11/12\11--9-xx-9-9-9-9--|
A|--7-xx-7-7-7-7--10-10--7-xx-7-7-7-7---9/10\-9--7-xx-7-7-7-7--|
E|-------------------------------------------------------------|

e|-------------------------------------------|
B|-------------------------------------------|
G|--9-xx-9-9-9-9--12-11--9-xx-9-9-9-12---11--|
D|--9-xx-9-9-9-9--12-11--9-xx-9-9-9-12---11--|
A|--7-xx-7-7-7-7--10-10--7-xx-7-7-7-10---10--|
E|-------------------------------------------|

e|--------------------------------------------------------------------------|
B|--------------------------------------------------------------------------|
G|--9-9-9-9-9-9--11/12\11--9-9-9-9-9-9--14-13--9-9-9-9-9-9--14/16\14\12/14--|
D|--x-x-x-x-x-x---x--x-x---x-x-x-x-x-x--x--x---x-x-x-x-x-x--x--x--x--x--x---|
A|--7-7-7-7-7-7---9/10\9---7-7-7-7-7-7--12-11--7-7-7-7-7-7--12/14\12\10/12--|
E|--------------------------------------------------------------------------|


e|----------------------------------|------------------------------------
B|----------------------------------|------------------------------------
G|--9-9-9-9-9-9--19-19-19-19-19-19--|--9-9-9-9/11-11-11-11/12-12-12-12/--
D|--x-x-x-x-x-x--x--x--x--x--x--x---|--x-x-x-x--x--x--x--x-x--x--x--x----
A|--7-7-7-7-7-7--17-17-17-17-17-17--|--7-7-7-7/-9--9--9--9/10-10-10-10/--
E|----------------------------------|------------------------------------

e|-----------------------------------------------------------------|
B|-----------------------------------------------------------------|
G|--14-14-14-14/16-16-16-16/17-17-17-17/19-19-19-19-/20-20-20-20^--|
D|--x--x--x--x--x--x--x--x--x--x--x--x--x--x--x--x---x--x--x--x----|
A|--12-12-12-12/14-14-14-14/15-15-15-15/17-17-17-17-/18-18-18-18^--|
E|-----------------------------------------------------------------|


Outro:

e|------------------------------------------------------------|
B|------------------------------------------------------------|
G|---------------------------------------9-9-7-9-9-7-9-9-7-9--|
D|--10-10-10-10-10-10-12-12-12-12-12-12--9-9-7-9-9-7-9-9-7-9--|
A|--10-10-10-10-10-10-12-12-12-12-12-12--7-7-5-7-7-5-7-7-5-7--|
E|--8--8--8--8--8--8--10-10-10-10-10-10-----------------------|

**During second verse, about half way through it plays the intro rather than verse


| /  slide up
| \  slide down
| h  hammer-on
| p  pull-off
| ~  vibrato
| +  harmonic
| x  Mute note
===============================================================================