The Audition - Approach The Bench Chords & Tabs

 

Approach The Bench Chords & Tabs

The Audition Chords & Tabs

Version: 1 Type: Tab

Approach The Bench Tab

   
-------------------------------------------------------------------------------
			 The Audition - Approach The Bench
-------------------------------------------------------------------------------
Tabbed by: Josh
Email: bikesjd14@hotmail.com

Tuning: 1/2 Step Down & Dropped D (Db-Ab-Db-Gb-Gb-eb)

Intro w/ delay
eb|-------------------------------------------------------------------------------|
Bb|-------------------------------------------------------------------------------|
Gb|-------------------------------------------------------------------------------|
Db|--2---------0------------------------------------------------------------------|
Ab|--2---------0------------------------------------------------------------------|
Db|--2---------0------------------------------------------------------------------|

Intro/Outro/Transition
eb|---------------------------------------------------------------|
Bb|---------------------------------------------------------------|
Gb|---------4-7-----------4-7-----------22----220---4p2p0--4p2p0--|
Db|--2----5-------22----5-------------0-----0---------------------|
Ab|--2------------22------------------0-----0---------------------|
Db|--2------------22------------------0-----0---------------------|
[ Tab from: http://www.guitartabs.cc/tabs/t/the_audition/approach_the_bench_tab.html ]
Verse
eb|-------------------------------------------------------------------------------------|
Bb|-------------------------------------------------------------------------------------|
Gb|-------------------------------------------------------------------------------------|
Db|---2----222----------0----000--------------------------------------------------------|
Ab|---2----222----------0----000--------------------------------------------------------|
Db|---2----222----------0----000--------------------------------------------------------|

Chorus
eb|--------------------------------------------------------------------------------|
Bb|--------------------------------------------------------------------------------|
Gb|--5-----------------------------------------------------------------------------|
Db|--5-----2------0----------------------------------------------------------------|
Ab|--3-----2------0----------------------------------------------------------------|
Db|--------2------0----------------------------------------------------------------|

That's really about it...Those are the only three chords used and if you listen to the 
you can figure out the rhythym/where it's palm muted/etc.

| /  slide up
| \  slide down
| h  hammer-on
| p  pull-off
| ~  vibrato
| +  harmonic
| x  Mute note
===============================================================================