The Ataris - Life Makes No Sense Chords & Tabs

 

Life Makes No Sense Chords & Tabs

The Ataris Chords & Tabs

Version: 1 Type: Tab 0 ratings
1 star 2 stars 3 stars 4 stars 5 stars
comments

Life Makes No Sense Tab

This is a radical song with a radical bass line.  It's all chords.

Intro and Verse
e|------------------------------------------------------------------------
B|------------------------------------------------------------------------
G|-11--11-11-11-11-11-12--12-12--11--11-9--6--6-6-6-9--7--7-7-7-7-7-7-7---
D|--0---0--0--0--0--0--0---0--0---0---0-0--4--4-4-4-0--5--5-5-5-5-5-5-5---
A|-----------------------------------------*------------------------------
E|------------------------------------------------------------------------

Continued
e|------------------------------------------------------------------------
B|------------------------------------------------------------------------
G|-11--11-11-11-11-11-12--12-12--14--14-14--6--6-6-6-9--7--7-7-7-7-7-7-7---
D|--0---0--0--0--0--0--0---0--0---0---0--0--4--4-4-4-0--5--5-5-5-5-5-5-5---
A|-------------------------------------------------------------------------
E|-------------------------------------------------------------------------

Verse (start the first verse where the * is) "Everything is turning
gray..."

Hook "Are you looking for an answer..."
e|--------------------------------------------------------------
B|--------------------------------------------------------------
G|-4--4-4-4-4-4-4-4-4-4-4-4-6--7--7-7-7-7-7-7-7-7-7-7-7-7-7-7---
D|-2--2-2-2-2-2-2-2-2-2-2-2-4--5--5-5-5-5-5-5-5-5-5-5-5-5-5-5---
A|--------------------------------------------------------------
E|--------------------------------------------------------------

Continued
e|--------------------------------------------------------------
B|--------------------------------------------------------------
G|-4--4-4-4-4-4-4-4-4-4-4-4-6--7--7-7-7-7-7-7-9-9-9-9-9-9-9-9---
D|-2--2-2-2-2-2-2-2-2-2-2-2-4--5--5-5-5-5-5-5-5-5-5-5-5-5-5-5---
A|--------------------------------------------------------------
E|--------------------------------------------------------------
[ Tab from: http://www.guitartabs.cc/tabs/t/the_ataris/life_makes_no_sense_tab.html ]
Chorus "It's like lighting candles in the rain..."
e|-------------------------------------------------------------------
B|-------------------------------------------------------------------
G|-7--7-7-7-7-7-7-9--9-9-9-9-9-9-14--14-14-14-14-14-14-12--11-9-11---
D|-5--5-5-5-5-5-5-7--7-7-7-7-7-7--0---0--0--0--0--0--0--9---9-9--9---
A|-------------------------------------------------------------------
E|-------------------------------------------------------------------

Continued
e|-------------------------------------------------------------------
B|-------------------------------------------------------------------
G|-7--7-7-7-7-7-7-9--9-9-9-9-9-9-11--11-11-11-11-11-12--12-11-9-11---
D|-5--5-5-5-5-5-5-7--7-7-7-7-7-7--0---0--0--0--0--0--0---0--0-0--0---
A|-------------------------------------------------------------------
E|-------------------------------------------------------------------

Play that first line again, and then this
e|---------------------------------------------------------------------------
B|---------------------------------------------------------------------------
G|-7--7-7-7-7-7-7-9--9-9-9-9-9-9-11-11-11-11-11-11-11-11-11-11-11-11-11-11---
D|-5--5-5-5-5-5-5-7--7-7-7-7-7-7--9--9--9--9--9--9--9--9--9--9--9--9--9--9---
A|---------------------------------------------------------------------------
E|---------------------------------------------------------------------------

Continued
e|--------------------------------------------------------------------------|
B|--------------------------------------------------------------------------|
G|-11-11-9-9-9-9-9-9-9-9-9-9-9-9-9-9-9-9-7--7-7-7-7-7-7-6h7-7-7-7-7-7-9-7---|
D|--9--9-7-7-7-7-7-7-7-7-7-7-7-7-7-7-7-7-5--5-5-5-5-5-5-5---5-5-5-5-5-5-5---|
A|--------------------------------------------------------------------------|
E|--------------------------------------------------------------------------|

Play the verse, and throw this dity in in the second line.  Listen for
it, you can't miss
it.
e|--------------------------------------------------------------------------
B|--------------------------------------------------------------------------
G|-11-11-11-9-9-9-12-12-12-11-11-11-9-9-11---6--6-6-6-9--7--7-7-7-7-7-7-7---
D|--0--0--0-0-0-0--0--0--0--0--0--0-0-0--0---4--4-4-4-0--5--5-5-5-5-5-5-5---
A|--------------------------------------------------------------------------
E|--------------------------------------------------------------------------

Play the Verse again, then the Hook, then the Chorus, and you're done!
Comments