The Ataris - 1 15 Chords & Tabs

 

1 15 Chords & Tabs

The Ataris Chords & Tabs

Version: 1 Type: Tab 0 ratings
1 star 2 stars 3 stars 4 stars 5 stars
comments

1 15 Tab

Tabbed: by ^MavE^

Song: 1*15*96
Artist: The Ataris
Album: Blue skies, broken hearts...next 12 exits...



|-7---7---5---5---3---3---2---2--------------------------
|---8---8---7---7---5---5---3---3-3/5--------------------
|--------------------------------------------------------
|--------------------------------------------------------
|--------------------------------------------------------
|--------------------------------------------------------

|-7---7---5---5---7---7---7-8-7--7------7-----5-----5----
|---8---8---7---7---8---8-----------8------8-----7-----7-
|--------------------------------------------------------
|--------------------------------------------------------
|--------------------------------------------------------
|--------------------------------------------------------
[ Tab from: http://www.guitartabs.cc/tabs/t/the_ataris/1_15_tab.html ]
|-7---7---5---5---3---3---2---2--------------------------
|---8---8---7---7---5---5---3---3-3/5--------------------
|--------------------------------------------------------
|--------------------------------------------------------
|--------------------------------------------------------
|--------------------------------------------------------

|-7---7---5---5---7---7---7-8-7--7------7-----5-----5----
|---8---8---7---7---8---8-----------8------8-----7-----7-
|--------------------------------------------------------
|--------------------------------------------------------
|--------------------------------------------------------
|--------------------------------------------------------


Chord progression goes like: G C D (all powerchords) in the first part,
the rest is pretty much straightforward.

Comments and corrections: daruler8086@hotmail.com
Comments