The Arrs - Requiem Chords & Tabs

 

Requiem Chords & Tabs

The Arrs Chords & Tabs

Version: 1 Type: Tab

Requiem Tab

Here's the amazing song "Requiem" from the Alien's Right Respect Sect!

intro:

Guitar 1:  
E----------------------------------------------------------------------------|
B----------------------------------------------------------------------------|
G----------------------------------------------------------------------------|
D---------------0-0-00-0-0-00-0-0-00-0-0-00-0-0-00-0-0-00-0-0-00-0-0-00-0-0--|
A---------------0-0-00-0-0-00-0-0-00-0-0-00-0-0-00-0-0-00-0-0-00-0-0-00-0-0--|
D-0-0-00-0-0-00-0-0-00-0-0-00-0-0-00-0-0-00-0-0-00-0-0-00-0-0-00-0-0-00-0-0--|

Guitar 2:
E----------------------------------------------------------------------------|
B----------------------------------------------------------------------------|
G----------------------------------------------------------------------------|
D---------0------0-0-00-0-0-00-0-0-00-0-0-00-0-0-00-0-0-00-0-0-00-0-0-00-0-0-|
A---------0------0-0-00-0-0-00-0-0-00-0-0-00-0-0-00-0-0-00-0-0-00-0-0-00-0-0-|
D---------0------0-0-00-0-0-00-0-0-00-0-0-00-0-0-00-0-0-00-0-0-00-0-0-00-0-0-|

Guitar 1:
E----------------------------------------------------------------------------|
B----------------------------------------------------------------------------|
G----------------------------------------------------------------------------|
D----------------------------------------------------------------------------|
A--------6-6-6-5--------6-6-6-10-9--------6-6-6-5--------10-9-10-9-----------|
D-0-0-0-0-0-0----0-0-0-0-0-0-0-----0-0-0-0-0-0----0-0-0-0----0---------------|

Guitar 2:
E----------------------------------------------------------------------------|
B----------------------------------------------------------------------------|
G----------------------------------------------------------------------------|
D-0000-----------0000--------------0000----------0000------------------------|
A-0000-----------0000--------------0000----------0000----10-9-10-9-----------|
D-0000-----------0000--------------0000----------0000--------0---------------|

Verse:

Guitar 1:
E----------------------------------------------------------------------------|
B----------------------------------------------------------------------------|
G----------------------------------------------------------------------------|
D-0-0-0-0-6-0-6-0-6-5-0-0-0-0-6-0-6-0-6-10-9-0-0-0-0-6-0-6-0-6-5-------------|
A-0-0-0-0-6-0-6-0-6-5-0-0-0-0-6-0-6-0-6-10-9-0-0-0-0-6-0-6-0-6-5-------------|
D-0-0-0-0-6-0-6-0-6-5-0-0-0-0-6-0-6-0-6-10-9-0-0-0-0-6-0-6-0-6-5-------------|
  *******             *******                *******
[ Tab from: http://www.guitartabs.cc/tabs/t/the_arrs/requiem_tab.html ]
Guitar 2:
E----------------------------------------------------------------------------|
B----------------------------------------------------------------------------|
G----------------------------------------------------------------------------|
D-0-0-0-0-6-0-6-0-6-5-0-0-0-0-6-0-6-0-6-10-9-0-0-0-0-6-0-6-0-6-5-------------|
A-0-0-0-0-6-0-6-0-6-5-0-0-0-0-6-0-6-0-6-10-9-0-0-0-0-6-0-6-0-6-5-------------|
D-0-0-0-0-6-0-6-0-6-5-0-0-0-0-6-0-6-0-6-10-9-0-0-0-0-6-0-6-0-6-5-------------|
  *******             *******                *******

Bridge:

Guitar 1:
E----------------------------------------------------------------------------|
B----------------------------------------------------------------------------|
G-5-5-5-5-5-5-4-4-4-4-4-4-8-8-8-8-8-8-7-7-7-7-7-7-8-7------------------------|
D----------------------------------------------------------------------------|
A----------------------------------------------------------------------------|
D----------------------------------------------------------------------------|

Guitar 2:
E----------------------------------------------------------------------------|
B----------------------------------------------------------------------------|
G----------------------------------------------------------------------------|
D----------------------------------------------------------------------------|
A----------------------------------------------------------------------------|
D-0-0-00-0-0-00-0-0-00-0-0-00-0-0-00-0-0-00-0-0-00-0-0-00--------------------|

Outro:

Guitar 1:
E----------------------------------------------------------------------------|
B----------------------------------------------------------------------------|
G----------------------------------------------------------------------------|
D-0-0-00-0-0-00-----------------------------0-0-0-0-0-0-0~-------------------|
A-0-0-00-0-0-00-6-5-4-7-6-5-4-6-5-4-7-6-5-4-0-0-0-0-0-0-0~-------------------|
D-0-0-00-0-0-00-----------------------------0-0-0-0-0-0-0~-------------------|

Guitar 2:
E----------------------------------------------------------------------------|
B----------------------------------------------------------------------------|
G----------------------------------------------------------------------------|
D-0-0-00-0-0-00-----------------------------0-0-0-0-0-0-0~-------------------|
A-0-0-00-0-0-00---------------6-5-4-7-6-5-4-0-0-0-0-0-0-0~-------------------|
D-0-0-00-0-0-00-----------------------------0-0-0-0-0-0-0~-------------------|

Well I think that's it: there is no chorus, and you have to play the bridge twice, the 
for about 5 times. Notes with * means they are on palm mute, and ~ means "let ring". It 
a short song but anyway, have fun!