The Amity Affliction - Stairway To Hell Chords & Tabs

 

Stairway To Hell Chords & Tabs

The Amity Affliction Chords & Tabs

Version: 2 Type: Bass Tab 0 ratings
1 star 2 stars 3 stars 4 stars 5 stars
comments

Stairway To Hell Bass Tab

   
Artist - The Amity Affliction
Song - Stairway to Hell
Tuning - C# G# C# F# (Drop C#)

Any Drama's comment below and I'll take a look. Numbers of notes for each section
are not 100% accurate.

F#|-----------------------------------7----------|
C#|----------------------------------------------|
G#|---5~---3~---0-0-1--0--0--3--5--5-------------|
C#|----------------------------------------------|

F#|----------------------------------------------|
C#|----------------------------------------------|
G#|---5~---3~---0-0-1--0--0--3--1--1--1----------|
C#|----------------------------------------------|

F#|------------------------------------------------------------------|
C#|------------------------------------------------------------------|
G#|------------------------------------------------------------------|
c#|---00000001010101010108888888877777710101010101012121212121212----|
         (10's, not 1's and 0's)

F#|-------------------------------------------------------------|
C#|-------------------------------------------------------------|
G#|-------------------------------------------------------------|
c#|---000000010101010101088888888777777101010101010000000000----|

Hard to hear but this is what I think it is
F#|-------------------------------------------|
C#|-------------------------------------------|
G#|-------------------------------------------|
C#|---0000000101010101010888888881010101010---|X2

Breakdown
F#|----------------------------------------------------------------------|
C#|----------------------------------------------------------------------|
G#|----------------------------------------------------------------------|
C#|---8888888810101010101010--00-00-000-000-10h12-0-00-000-000-10p8------|X3

End part of breakdown
F#|--------------------------|
C#|--------------------------|
G#|--------------------------|
C#|---8888888810101010101010-|

Back into this riff
F#|------------------------------------------------------------------|
C#|------------------------------------------------------------------|
G#|------------------------------------------------------------------|
C#|---00000001010101010108888888877777710101010101012121212121212----|
[ Tab from: http://www.guitartabs.cc/tabs/t/the_amity_affliction/stairway_to_hell_btab_ver_2.html ]
F#|-------------------------------------------------------------|
C#|-------------------------------------------------------------|
G#|-------------------------------------------------------------|
C#|---000000010101010101088888888777777101010101010000000000----|

Breakdown 2
F#|-------------------------------------------------------------|
C#|-------------------------------------------------------------|
G#|-------------------------------------------------------------|X3
C#|---10h12-000000-14h15-0000005555555333310101010--------------|


F#|-------------------------------------------------------------|
C#|-------------------------------------------------------------|
G#|-------------------------------------------------------------|
C#|---10h12-000000-14h15-0000005555555333310101010--------------|

Breakdown (It is played 3 times but the bass only plays the 2nd and 3rd one)
F#|----------------------------------------------------------------------|
C#|----------------------------------------------------------------------|
G#|----------------------------------------------------------------------|
C#|---8888888810101010101010--00-00-000-000-10h12-0-00-000-000-10p8------|X2

End part of breakdown
F#|--------------------------|
C#|--------------------------|
G#|--------------------------|
C#|---8888888810101010101010-|

Intro Section
F#|-----------------------------------7----------|
C#|----------------------------------------------|
G#|---5~---3~---0-0-1--0--0--3--5--5-------------|
C#|----------------------------------------------|

F#|-----------------------------------------------------------|
C#|-----------------------------------------------------------|
G#|-----------------------------------------------------------|X2
C#|---5~--3~--1~--0~--3~--5~ ON THE THIRD TIME IT JUST 55555--|


F#|-----------------------------------------|
C#|-----------------------------------------|
G#|-----------------------------------------|X3
C#|--12~--10~--8~--7~--0~--10~--8~--7~------|

Breakdown
F#|------------------------------------------------|
C#|------------------------------------------------|
G#|------------------------------------------------|
C#|--0000-0000-0-0000-0000-00-0000-0000-0-8~5~-----|X2

F#|------------------------------------------------|
C#|------------------------------------------------|
G#|------------------------------------------------|
C#|--0000-0000-0-0000-0000-00-0000-0000-0-0000-----|TILL FADE OUT
Comments