The Amity Affliction - Greens Avenue Chords & Tabs

 

Greens Avenue Chords & Tabs

The Amity Affliction Chords & Tabs

Version: 1 Type: Bass Tab 0 ratings
1 star 2 stars 3 stars 4 stars 5 stars
comments

Greens Avenue Bass Tab

   
-------------------------------------------------------------------------------
                             GREENS AVENUE - The Amity Affliction
-------------------------------------------------------------------------------

Tabbed by: J0k3r
Artist - The Amity Affliction
Song - Green's Avenue
Tuning - B F# B E (drop B)

| /  slide up
| \  slide down
| h  hammer-on
| p  pull-off
| ~  vibrato
| +  harmonic
| x  Mute note

Any comments, suggestions, let me know, PM on this site.

Intro x2 (those are 10's and 12's, not 1's, 2's and 0's)
E |-------------------------------------------|
B |-------------------------------------------|
F#|-------------------------------------------|
B |-10101010-1010/12-12--12-12--12-8~---------|

E |-------------------------------------------|
B |-------------------------------------------|
F#|-------------------------------------------|
B |-10101010-1010/12-12--12-12--8~------------|

Verse (0:32)
E |-------------------------------------------|
B |-------------------------------------------|
F#|-------------------------------------------|
B |-0000000010101010101010108888888888888888--|

E |-------------------------------------------|
B |-------------------------------------------|
F#|-------------------------------------------|
B |-0000000010101010101010108888888855555555b-|
(bend the last 5, just before the breakdown)

Breakdown #1 (0:45) (listen to song for exact pattern)
E |---------------------------------------------------------|
B |---------------------------------------------------------|
F#|---------------------------------------------------------|
B |-0-0-0000-0-00-0-0-00-0000-00-101010101010101088888888b--|
(bend the last 8)

E |---------------------------------------------------------|
B |---------------------------------------------------------|
F#|---------------------------------------------------------|
B |-0-0-0000-0-00-0-0-00-0000-00-8888888810101010-8-8-------|

Chorus x4 (0:58)
E |------------------------------------------|
B |------------------------------------------|
F#|------------------------------------------|
B |-888888888888-10-10-0000000000000000-8-8--|
(on the 4th time, only play half the zero's)

Verse 2 (1:25)
E |---------------------------------------------------------|
B |---------------------------------------------------------|
F#|---------------------------------------------------------|
B |-88888888101010101010101010000000001010101010101010------|

E |------------------------------------------|
B |------------------------------------------|
F#|------------------------------------------|
B |-88888888000000001010101010101010---------|

Bass break (1:38) (guitars only)...Just before the breakdown begins, 
there is a single hit on the 1.
[ Tab from: http://www.guitartabs.cc/tabs/t/the_amity_affliction/greens_avenue_btab.html ]
Breakdown #2 Part 1 (1:45)
E |------------------------------------------|
B |------------------------------------------|
F#|------------------------------------------|
B |-0-00-00-0-00-00-0-00-00-11111111---------|

E |------------------------------------------|
B |------------------------------------------|
F#|------------------------------------------|
B |-0-00-00-0-00-00-0-00-00-1~--0~-----------|

Breakdown #2 Part 2 (1:51)
E |------------------------------------------|
B |------------------------------------------|
F#|------------------------------------------|
B |-00-00-0000-000-00-00-0000-12121212-------|

E |------------------------------------------------|
B |------------------------------------------------|
F#|------------------------------------------------|
B |-00-00-0000-000-00-00-0000-12121212101010121212-|

E |------------------------------------------|
B |------------------------------------------|
F#|------------------------------------------|
B |-00-00-0000-000-00-00-0000-12121212-------|

E |------------------------------------------|
B |------------------------------------------|
F#|------------------------------------------|
B |-00-00-0000-000-00-00-0000-10101010-8-8---|
(those final notes are 10's)

Chorus x4 (2:04)
E |------------------------------------------|
B |------------------------------------------|
F#|------------------------------------------|
B |-888888888888-10-10-0000000000000000-8-8--|
(on the 4th time, only play half the zero's)

Intro x2 (2:31) (sounds similar to the intro, but its exactly the same)
E |-------------------------------------------|
B |-------------------------------------------|
F#|-------------------------------------------|
B |-10101010-1010/12-12--12-12--8~------------|

E |-------------------------------------------|
B |-------------------------------------------|
F#|-------------------------------------------|
B |-10101010-1010/12-12--12-12--12-12~--------|

Interlude X2 (2:58) (the second time, start strumming notes) 
E |-------------------------------------------|
B |-------------------------------------------|
F#|-------------------------------------------|
B |-8~-10~-0~-10~-8~-12~-10~-----END with 8-8-|
 
Chorus x4 (3:24)
E |------------------------------------------|
B |------------------------------------------|
F#|------------------------------------------|
B |-888888888888-10-10-0000000000000000-8-8--|

Intro x2 (3:51) (This part is the exact same as the intro)
E |-------------------------------------------|
B |-------------------------------------------|
F#|-------------------------------------------|
B |-10101010-1010/12-12--12-12--12-8~---------|

E |-------------------------------------------|
B |-------------------------------------------|
F#|-------------------------------------------|
B |-10101010-1010/12-12--12-12--8~------------|

Comments