The American Analog Set - Aaron And Maria Chords & Tabs

 

Aaron And Maria Chords & Tabs

The American Analog Set Chords & Tabs

Version: 1 Type: Tab

Aaron And Maria Tab

Artist: American Analog Set
Song: Aaron and Maria
Album: Know By Heart
Website: http://www.amanset.com/home.htm
Tabbed by: Don Tago
email: recebedou@yahoo.com

Standard Tuning (capo II)

Intro/Verse (Riff 1)
E----------------------------------------------|
B----------------------------------------------|
G----------------------------------------------|
D--0h2-2-2-2-0-0-0h2-2-0-----------0h2-2-2-2---|
A---3--3-3-3-3-3--3--3-3-3-3-3-3-3--3--3-3-3-3-|
E--------------------------1-1-1-1-------------|

Chorus Riffs:
[ Tab from: http://www.guitartabs.cc/tabs/t/the_american_analog_set/aaron_and_maria_tab.html ]
(riff 2)
E---3--------------------|
B---3--------------------|
G---0--------------------|
D---0--------0h2-2-2-2---| X2, then
A---2--3-3-3--3--3-3-3-3-|
E---3--1-1---------------|

(riff 3)
E---3----------------------|
B---3----------------------|
G---0----------------------|
D---0----------------------|  then,
A---2--3-3-3-0-0h3-3-3-3---|
E---3--1-1---------------3-|

(riff 4)
E---3------------------|
B---3------------------|
G---0------------------|
D---0------2-2-2-2-2-2-|
A---2--3-3-3-3-3-3-3-3-|
E---3--1-1-0-0-0-0-0-0-|