The Allman Brothers Band - Soulshine Chords & Tabs

 

Soulshine Chords & Tabs

The Allman Brothers Band Chords & Tabs

Version: 2 Type: Tab 0 ratings
1 star 2 stars 3 stars 4 stars 5 stars
comments

Soulshine Tab

Allman Brothers Band
Soulshine
Tabbed By: Kevin Adkins  majin_kevin@hotmail.com
h - hammeron or hold
p - pulloff
b - bend
/ - slide up
\ - slide down


Intro                                                                     
E||--------------|------------------------|-------------------------|
B||--------------|------------------------|-------------------------|
G||--------------|------------------8--10-|-------------------------|
D||------8-8-----|--10b-------------------|--10b-10--10-------------|
A||--10-------10-|------------------------|-------------------------|
E||--------------|------------------------|-------------------------|

---------------------------------------|------------------------------|
---------------------------------------|--------------------------11--|
---------------------------------------|-----------------------12-----|
------8-8-----8--10---10r-8---8--------|------8h-----8/15-------------|
--10-------10--------------------10----|------------------------------|
-------------------------------------9-|--10--------------------------|

------------------11--13-|-----------------------------|
--13b--------------------|--13b--13--13h----13/0-------|
-------------------------|-----------------------------|
-------------------------|-----------------------------|
-------------------------|-----------------------------|
-------------------------|-----------------------------|

-------------------------------------------|---------------------|
---------------------20b---18--------------|---------------------|
------15-15--15---------------20-18--------|---------------------|
--17-------------17-----------------20--20-|----------20/3-------|
-------------------------------------------|---------------------|
-------------------------------------------|---------------------|

Verse                                                                  
---------------1----|------------------------|---------------1----|
---------------1----|------------------------|---------------1----|
------3-------------|--------------3---------|------3-------------|
------3-------------|--------------3h5p3-----|------3-------------|
--------------------|--------------------5---|--------------------|
--------------------|------------------------|--------------------|

-------------------|---------------1----|--------------------------|
--4----------------|---------------1----|--4-----------------------|
--3----------------|------3-------------|--3-------------3---------|
-------------------|------3-------------|----------------5--3------|
-------------------|--------------------|-------------1/-5----5/-1-|
-------------------|--------------------|--------------------------|

                                                        Chorus..                
---------------------|----------------------|--------------------------|
---------------------|----------------------|--------------------------|
--3----3-------------|----------------------|--3--------3--3---3-------|
--3----3----3--------|--5----5----6----6----|--3--------5--3---3-------|
------------3--------|--5----5----6----6----|--1------------------3/5/-|
------------1--------|--3----3----4----4----|--------------------------|

--------------------------------|---------------------------|
--------------------------------|---------------------------|
--10--------10--10-10----10-----|--8--------8----8----------|
--10--------12--10-------10-----|--8--------8----8-10-8-----|
--8----------------12-------12--|--6--------------------10/-|
--------------------------------|---------------------------|

---------------------------|------------------------------|
---------------------------|------------------------------|
------3--------------------|--3------------3-3----3--3----|
------3--------------------|--3------------3-3----3--5----|
------1---------1--1--3-5--|--1------1/-5-------5------5/-|
-----------1--3------------|------------------------------|

------------------------------|----------------------|------------------------|
------------------------------|----------------------|------------------------|
--10-----------10--10-----10/-|----------------------|--3---------7h8p7-------|
--10-----------12--10-----10/-|--5----5----6----6----|--3---------------------|
--8---------12----------------|--5----5----6----6----|--1---------------------|
------------------------------|--3----3----4----4----|----------6-------------|

    2nd Verse                                                                  
---------------1----|---------------------------|-----------1--------|
---------------1----|------4--------------------|-----------1--------|
------3-------------|-------------------3/5--3--|------3-------------|
------3-------------|-------------------3/5--3--|------3-------------|
--------------------|-------------3/5-----------|--------------------|
--------------------|---------------------------|--------------------|

---------------------|----------------1----|--------------------------|
--4--4---------------|----------------1----|------4-------------------|
--3--3----3----------|--3----3-------------|------3--------3----------|
----------3----------|--3----3-------------|---------------5---3h5p3--|
---------------------|---------------------|--------------------------|
---------------------|---------------------|--------------------------|

                                               2nd Chorus                           
---------------------|----------------------|----------------------------|
-----------6----6/---|----------------------|----------------------------|
------3----5----5/---|----------------------|--3---------------3---------|
------3--------------|--5----5----6----6----|--3-------------3-3----3----|
---------------------|--5----5----6----6----|--1--------1/5-----------5/-|
---------------------|--3----3----4----4----|----------------------------|

----------------------------------|---------------------------------|
----------------------------------|---------------------------------|
--------------10--10-10----10-----|--8-----------8------------8-----|
--3-----------12--10-------10-----|--8-----------8h10-8-------8-----|
--3--------12--------12-------12/-|--6--------10--------10------10/-|
--1-------------------------------|---------------------------------|

----------------------------|---------------------------|
----------------------------|---------------------------|
--3-------------3-3----3----|--3-------------3-----3----|
--3-------------3-3----3----|--3-------------3-----3----|
--1--------1/5-----------5/-|--1--------1/5----------5/-|
----------------------------|---------------------------|

-------------------------------|-----------------------|-----------------------|
-------------------------------|-----------------------|-----------------------|
-----------10--10-------10-----|-----------------------|-----------------------|
--3--------12--10-------10-----|----5--5--5--6----6----|--8----8---8---8---8/--|
--3---------------12-------12--|----5--5--5--6----6----|--8----8---8---8---8/--|
--1----------------------------|----3--3--3--4----4----|--6----6---6---6---6/--|

  Bridge                                                  
----------------------|------------------------------|
----------------------|------------------------------|
----------------------|--8----8------8--------8-8--8-|
--5----5------5---5---|--8----8------8--------8-8--8-|
--5----5------5---5---|--6----6-----------5/6--------|
--3----3------3---3---|-----------------6------------|

------------------------------|--------------------------|
------------------------------|--------------------------|
--8--------------8---8--8-----|--3----3------3------3----|
--8--------------10--8--8-----|--3----3------3------3----|
--6---------------------------|--1----1--------1------1/-|
--------------11----------11/-|--------------------------|

--------------------------|----------------------------|
--------------------------|----------------6-----------|
--7--------7----7----7----|--8---------------8----8----|
--7--------7----7----7----|--8----------8---------8----|
--5----------5---------5/-|--6--------6-------------6--|
--------------------------|----------------------------|

---------------------------|----------------------------|
---------------------------|----------------------------|
---------------------------|----------------------------|
--6----6----6---6-6--6--6/-|--3----3----3---3-3--3----x-|
--6----6----6---6-6--6--6/-|--3----3----3---3-3--3----x-|
--4----4----4---4-4--4--4/-|--1----1----1---1-1--1----x-|

  Main solo Rhythm                                                               
----------------------------|-----------------------------------|
----------------------------|-----------------------------------|
--3----3--------3-3----3----|--10-----------10--10-10----10-----|
--3----3--------3-3----3----|--10-----------12--10-------10-----|
--1----1----1/5----------5/-|--8---------12--------12-------12/-|
----------------------------|-----------------------------------|

----------------------------|-----------------------|
----------------------------|-----------------------|
--8--------8--8-------8-----|--3----3---3---3---3---|
--8--------8--8-------8-----|--3----3---3---3---3---|
--6-------------10------10/-|--1----1---1---1---1---|
----------------------------|-----------------------|

----------------------------|----------------------|----------------------|
----------------------------|----------------------|----------------------|
--3----3----3---3-3----3-3--|----------------------|----------------------|
--3----3----3---3-3----3-3--|--3----3------3----3--|--5----5----6----6----|
--1----1----1---1-1----1-1--|--3----3------3----3--|--5----5----6----6----|
----------------------------|--1----1------1----1--|--3----3----4----4----|

--------------------|------------------|------------------|------------------|
--------------------|------------------|------------------|------------------|
--3----3------------|------------------|------------------|------------------|
--3----3------------|------------------|------------------|------------------|
--1----1------------|------------------|------------------|------------------|
--------------------|------------------|------------------|------------------|

Main Solo                                            
-------------------------|----------------13-------|
---------------------11--|--13b---------------13r--|
--------------10/-12-----|-------------------------|
-------------------------|-------------------------|
-------------------------|-------------------------|
-------------------------|-------------------------|

--13--------------------------|---------------------------------|
------13r--11-13~-------13b---|----13b-14b---11-x---------------|
------------------------------|-------------------x---6b--------|
------------------------------|---------------------x------8--6-|
------------------------------|---------------------------------|
------------------------------|---------------------------------|

-----------------6-----9-6---6-------------|-------------6~-----6/---|
-------------------9-6-----6---9-6---6-----|-------------------------|
-----6------6-8b-------------------9---9-8-|--6---6-8b---------------|
--8----8-----------------------------------|----8--------------------|
-------------------------------------------|-------------------------|
-------------------------------------------|-------------------------|

----------------------------|------------6---------------6-----|
------6-6---6-9-6-6---6-6/8-|--8----6-8----8----6-8---8----6---|
----8b----------------------|----------------------------------|
----------------------------|----------------------------------|
----------------------------|----------------------------------|
----------------------------|----------------------------------|

------------------15--------|
----------18----------------|
----17b------17r-----17r----|
----------------------------|
----------------------------|
----------------------------|

-------------------3---|----3--------3---------3----------|
-----------------3---3-|--6---6~-------6-3---3---6--------|
------------x-5b-------|-------------------5b-------5r--3-|
-----------------------|----------------------------------|
-----------------------|----------------------------------|
-----------------------|----------------------------------|
                                      
--------------------------------------|
--------------------------------------|
--5----3~-3------3-3--3------------15-|
-----5--------5-------------10/17-----|
--------------------------------------|
--------------------------------------|

-----------------------------------------|
--------16--18-----16--18----------------|
--17b----------17b--------17b-17r-15--17-|
-----------------------------------------|
-----------------------------------------|
-----------------------------------------|

-------------------------------------------|
-------------------------------------------|
------15-15--15--7/3/15-------15---15--17--|
--17-----------------------17--------------|
-------------------------------------------|
-------------------------------------------|

-----------------------18-15h18p15----|--15-------18---------------------------|
------------18---------------------18-|------18b-----18r---16h18-----16h-16/---|
--17b---17b----17b--------------------|---------------------------17-----------|
--------------------------------------|----------------------------------------|
--------------------------------------|----------------------------------------|
--------------------------------------|----------------------------------------|

--20r---18-20-18~-18~-18~-18~-20---|--20b-18-20~-----15r-13-----------------|
-----------------------------------|--------------------------13b-13r-11----|
-----------------------------------|-------------------------------------12-|
-----------------------------------|----------------------------------------|
-----------------------------------|----------------------------------------|
-----------------------------------|----------------------------------------|
                                                                              
--------------------|
--11~~~-------------|
--------------------|
--------------------|
--------------------|
--------------------|

                     Chorus Part                           
|-----------------------------|
|-----------------------------|
|--3----------------3----3----|
|--3--------------3-3----3----|
|--1--------1-1/5----------x--|
|-----------------------------|

-----------------------------------|---------------------------------|
-----------------------------------|---------------------------------|
---------------10--10-10----10-----|--8-----------8------------8-----|
--3----3-------12--10-------10-----|--8-----------8h10-8-------8-----|
--3----3----12--------12-------12/-|--6--------10--------10------10/-|
--1----1---------------------------|---------------------------------|

---------------------------------|-------------------------|
---------------------------------|-------------------------|
--3----3----------3-3----3--3----|--3----3----3--3----3----|
--3----3----------3-3----3--3----|--3----3----3--3----3----|
--1----1----1-1/5------5------5/-|--1----1----1--1------5/-|
---------------------------------|-------------------------|
[ Tab from: http://www.guitartabs.cc/tabs/t/the_allman_brothers_band/soulshine_tab_ver_2.html ]
---------------------------------------|-----------------------|
---------------------------------------|-----------------------|
--10-----------10--10--------10--10----|-----------------------|
--10-----------12--10--------12--10----|--5----5--5--6----6----|
--8---------12--------12--12--------x--|--5----5--5--6----6----|
---------------------------------------|--3----3--3--4----4----|

-----------------------|-------------------------------------|
-----------------------|-------------------------------------|
--3----3---3---3---3/--|--10----10-------10--10-10----10-----|
--3----3---3---3---3/--|--10----10-------12--10-------10-----|
--1----1---1---1---1/--|--8-----8-----12--------12-------12/-|
-----------------------|-------------------------------------|

--------------------------------|--------------------------------|
--------------------------------|--------------------------------|
--8----8-------8---8-8----8-----|--3----3----3---------3----3----|
--8----8-------10--8-8----8-----|--3----3----3---------3--5-3----|
--6----6----10--------------10/-|--1----1----1--3/5--5---------5-|
--------------------------------|--------------------------------|

-----------------------------|---------------------------------------|
-----------------------------|---------------------------------------|
--3----3----3--------3--3----|--10----10-------10-------------10-----|
--3----3----3h5p3----3--3----|--10----10-------10h12-10-------10-----|
--1----1----------5-------5/-|--8-----8-----12----------12-------12/-|
-----------------------------|---------------------------------------|

                         Outro Solo Rhythm                                               
-----------------------|-----------------------|-----------------------|
-----------------------|-----------------------|-----------------------|
-----------------------|--3----3---3---3---3---|--3----3---3---3---3---|
--5----5--5--6----6----|--3----3---3---3---3---|--3----3---3---3---3---|
--5----5--5--6----6----|--1----1---1---1---1---|--1----1---1---1---1---|
--3----3--3--4----4----|-----------------------|-----------------------|

-------------------------------|------------------------------|
-------------------------------|------------------------------|
-----------10------------------|--8--------8------------8-----|
--3------------10-------10-----|--8--------8-10---------8h10--|
--3---------------12-------12/-|--6------------------10-------|
--1----------------------------|------------------------------|

-----------------------------|---------------------------|
-----------------------------|---------------------------|
--3----3---------3-3----3----|--3----3------3----3----3/-|
--3----3----3/5--3-3----3----|--3----3------3----3h5--3/-|
-------1---------1-1------5/-|--1----1---------5---------|
-----------------------------|---------------------------|

--------------------------------------|----------------------|
--------------------------------------|----------------------|
--10----10-------10-10-10-----10--10/-|----------------------|
--10----10-------10h12-10-----10--10/-|--5----5----6----6----|
--8-----8-----12----------12----------|--5----5----6----6----|
--------------------------------------|--3----3----4----4----|

-------------------------|------------------------------|
-------------------------|------------------------------|
--3----3--3--3--3--3--3--|--3----3-------3-3----3--3----|
--3----3--3--3--3--3--3--|--3----3-------3-3----3--5----|
--1----1--1--1--1--1--1--|--1----1----1-------5------5/-|
-------------------------|------------------------------|

----------------------------------|---------------------------|
----------------------------------|---------------------------|
--10----10----10--10--10--10-10---|--8----8----8--8--8--8-8---|
--10----10----10--10--10--10-10---|--8----8----8--8--8--8-8---|
--8-----8-----8---8---8---8--8----|--6----6----6--6--6--6-6---|
----------------------------------|---------------------------|

-----------------------------|---------------------------|
-----------------------------|---------------------------|
--3----3---------3-3----3----|--3----3-------3-3----3----|
--3----3---------3-3----3----|--3----3----3--3-3----3-3--|
--1----1----1/5-----------5/-|--1----1----1-----------1--|
-----------------------------|---------------------------|

                                                        End Outro Solo Rhythm          
-------------------------|---------------------------|----------------------|
-------------------------|---------------------------|----------------------|
-------------------------|---------------------------|--3----3----3--3------|
--3----3----3-3--3----3--|--5----5----5-6----6--6--6-|--3----3----3--3------|
--3----3----3-3--3----3--|--5----5----5-6----6--6--6-|--1----1----1--1------|
--1----1----1-1--1----1--|--3----3----3-4----4--4--4-|----------------------|



Outro Solo
--------16b-----16r---13-|--16--16~-----16r-13-16---13r---|
-------------------------|--------------------------------|
-------------------------|--------------------------------|
-------------------------|--------------------------------|
-------------------------|--------------------------------|
-------------------------|--------------------------------|

--13~---------------13---------|-------------------15----------|
--------------13b-------13r-11-|--13-----11------------13b-11--|
-------------------------------|------12-----------------------|
-------------------------------|-------------------------------|
-------------------------------|-------------------------------|
-------------------------------|-------------------------------|

--------------11---9--10--------------------|---------------------------------|
--11--13-11--------------11--5-3b-----------|-------------------------------6-|
-----------------------------5-3b-3--1------|--1---------3~---5b-3p1-----8b---|
---------------------------------------3--3-|-----3------3~----------3--------|
--------------------------------------------|-------1--1----------------------|
--------------------------------------------|---------------------------------|

--6---------------------6-6-----9-6-|----6---------------------------------|
-----9--8--6--6-6~----6-------6-----|--6---9-6---6-------8~---6----8--6----|
--------------------8b------8b------|----------9---9-8-6---------6-------8-|
------------------------------------|--------------------------------------|
------------------------------------|--------------------------------------|
------------------------------------|--------------------------------------|

-------------------------------------|-------------------------|
--6--8h9---8--6----------------------|-----------6---------6---|
-----------------6-5-x-5--5-3---3--5b|----5b-5r---------5b---5r|
-------------------------------------|-------------------------|
-------------------------------------|-------------------------|
-------------------------------------|-------------------------|

--------------6--6----------|------------------------------|
-----6----6---6--6--6----6--|--6----6--6---6-6----6--6-6---|
---3-5----5-3-5b-5b-5r-3-5--|--5p-3----3---3-5p-3----3-5b--|
----------------------------|-------5-------------5--------|
----------------------------|------------------------------|
----------------------------|------------------------------|

---------------------------|-------------------------------|
----6-------6------------6-|--6--6--6--6--6----6---6-6---6-|
-------5r-3-5--3---3-5b--5b|--5b-5b-5b-5b-5r---5r----5r----|
-----------------5---------|-------------------------------|
---------------------------|-------------------------------|
---------------------------|-------------------------------|

-----------------------------6----|-----------------6---9r---6---|
--6----6------------6---6--8----6-|--8----8--6-8--8---8--------6-|
--5r-3-5----3---3/7---------------|------------------------------|
--------------5-------------------|------------------------------|
----------------------------------|------------------------------|
----------------------------------|------------------------------|

--9-6-6---------------------------------------|----------------13-----|
--------9/11-11-11--9-11---------11-13----11~-|-------------------13r-|
--------------------------10-12--------12-----|-----------------------|
----------------------------------------------|-----------------------|
----------------------------------------------|-----------------------|
----------------------------------------------|-----------------------|

----------------------------|----------------------10b-|--------------------|
------------------11----11--|--11-13-------------------|----------------14b-|
------------12-12----12-----|--------12~---------------|--------------------|
----------------------------|--------------------------|--------------------|
----------------------------|--------------------------|--------------------|
----------------------------|--------------------------|--------------------|

-----------------------|-----------------------18--|
-----------------------|---------------------------|
------15/-0------------|-------------------18b-----|
-----------------14b---|----15----15/0-------------|
-----------------------|---------------------------|
-----------------------|---------------------------|

--18----18----18-21-18---18/-0-|--------17b---15----------|
-------------------------------|------------------18--16--|
-------------------------------|--------------------------|
-------------------------------|--------------------------|
-------------------------------|--------------------------|
-------------------------------|--------------------------|
                                                            
----------13----------------|------------------------------|
--13b--------13r--11-11-----|----13b-13b-13r--11-13--------|
----------------------------|------------------------------|
----------------------------|------------------------------|
----------------------------|------------------------------|
----------------------------|------------------------------|

------------------------------------|------18~-----------|
------------------------------------|--------------------|
--------13---13-13-13-15-15----15/0-|--------------------|
----15------------------------------|--------------------|
------------------------------------|--------------------|
------------------------------------|--------------------|

--18--21-18~-------18--18--18--|----18---18--21-18--20---------|
-------------------------------|-------------------------------|
-------------------------------|-------------------------------|
-------------------------------|-------------------------------|
-------------------------------|-------------------------------|
-------------------------------|-------------------------------|

-----------------------------|--------------------------------------------|
----------11--8--------------|------------------11------------------------|
----------11--8--------------|---------------10----10-13-10----10---------|
-------------------15-13-11b-|--------11-12-----------------13----12--12--|
-----------------------------|--13----------------------------------------|
-----------------------------|--------------------------------------------|

---------------------------||
---------------------------||
---------------------------||
--8--6---------------------||
--------8--6--4b-----------||
---------------------------||

2nd guitar part for outro solo, comes in about half way through

------------------|------------------|--------------------|
------------------|------------------|--------------------|
------------------|------------------|----------------17b-|
------------------|------------------|--------------------|
------------------|------------------|--------------------|
------------------|------------------|--------------------|

----------------------------|---------------------------------|
----------18-------------18-|---------------------------------|
------17b----17b------17b---|--17b-17b17r--15-17--------------|
----------------------------|--------------------15~---15/0---|
----------------------------|---------------------------------|
----------------------------|---------------------------------|

---------------------------------|-----------------------------------|
----18---------------------------|-----------------------------------|
-------17r--15-18-----15-15~-----|------17r----15-18-----15--15~-----|
------------------17-------------|--------------------17-------------|
---------------------------------|-----------------------------------|
---------------------------------|-----------------------------------|

--18/-0---------------------|----15b-13-11----------------------------|
----------------------------|-----------------------------11--13--13b-|
---------------15-17b-------|-----------------10-10----12-------------|
-----------17---------------|-----------------------------------------|
----------------------------|-----------------------------------------|
----------------------------|-----------------------------------------|

-----------------------------------------|----------------------------18b|
--13r-11-----11--13--11---13b-13b-11--13-|------11-11--11--11~-----------|
---------12------------------------------|--12---------------------------|
-----------------------------------------|-------------------------------|
-----------------------------------------|-------------------------------|
-----------------------------------------|-------------------------------|

----18--18-----------18b---|--18b---18--18---------------15-----|
---------------------------|--------------------------13-----13b|
---------------------------|----------------------15------------|
---------------------------|------------------------------------|
---------------------------|------------------------------------|
---------------------------|------------------------------------|

------------------------------15-----|----15----------15--------15------------|
--13---------------------------------|----------------------------------------|
------15-12-----15--15~----------17b-|--------17b---------17b-------17b17--15-|
-------------15----------------------|----------------------------------------|
-------------------------------------|----------------------------------------|
-------------------------------------|----------------------------------------|

------------------------------------------------|
---------------------------------------------18-|
---------15---15~-----------------15-----17b----|
--17--15----------17----15-17--15-----15--------|
------------------------------------------------|
------------------------------------------------|

--------------------------15--------------|
------------15-16--17-18-----15/-0--------|
--17r------------------------------15--17-|
------------------------------------------|
------------------------------------------|
------------------------------------------|

--------------------------------------------------------|------------------|
---------------------18b--18-16-------------------------|------------------|
------15-15--15-----------------15-18----15-15h18p15----|--15--------------|
--17-------------17-------------------18-------------18-|------------------|
--------------------------------------------------------|------------------|
--------------------------------------------------------|------------------|
Comments