The Allman Brothers Band - Soulshine Chords & Tabs

 

Soulshine Chords & Tabs

The Allman Brothers Band Chords & Tabs

Version: 1 Type: Tab 0 ratings
1 star 2 stars 3 stars 4 stars 5 stars
comments

Soulshine Tab

-------------------------------------------------------------------------------
			     allman brothers-soulshine
-------------------------------------------------------------------------------
Tabbed by:deznuts
Email:deznuts89@yahoo.com

Tuning:standard
[ Tab from: http://www.guitartabs.cc/tabs/t/the_allman_brothers_band/soulshine_tab.html ]
e|---------------------------------------------------------------------------|
B|-------------------------6-------------------------------------------------|
G|--------3--3---5b--5b--5b--5b--5--5~~----------3--3--3--5--5b--3-----------|
D|--3/5------------------------------------3/5----------------------5--3-----|
A|---------------------------------------------------------------------------|
E|---------------------------------------------------------------------------|

e|---------------------------------------------------------------------------|
B|---------------------------------------------------------------------------|
G|--------5--5---------------------------------------------------------------|
D|---------------------------------------------------------------------------|
A|--3h5----------------------------------------------------------------------|
E|---------------------------------------------------------------------------|
Comments