The Allman Brothers Band - One Way Out Chords & Tabs

 

One Way Out Chords & Tabs

The Allman Brothers Band Chords & Tabs

Version: 1 Type: Tab 0 ratings
1 star 2 stars 3 stars 4 stars 5 stars
comments

One Way Out Tab

This is how the song is played by greg allman i do not have the slide guitar part
for any solo's though.


             repeat this 14 times
E---5---------------------------------------------------------------------|
A--------------7-------7--------------------------------------------------|
D-----7-7---5----7--5----5--7---------------------------------------------|
G-------------------------------------------------------------------------|
B-------------------------------------------------------------------------|
E-------------------------------------------------------------------------|

then slide guitar enters and is played (for the most part) w/o slides

play that 6 times then go to verse

(lyrics will not follow notes)
E---5----------------------------5-------------------------------------|
A---------------7-------7--------------------7-------------------------|
D------7-7---5----7--5----5--7------7-7---5----------------------------|
G----------------------------------------------------------------------|
B----------------------------------------------------------------------|
E----------------------------------------------------------------------|
    Theres one way out baby, lord i just cant go out that door

E--------------------------------------------------------------|
A---5-----------------------------5----------------------------|
D---------------7-------7--------------------7-----------------|
G------7-7---5----7--5----5--7-------7-7---5-------------------|
B--------------------------------------------------------------|
E--------------------------------------------------------------|
   theres one way out baby, and lord i just cant go out that door


Either play a distored E chord or play this or do both!

E----------------------------------------------------------------|
A----7-----------------------------7-----------------------------|
D----------------9-------9--------------------9------------------|
G-------9-9---7----9--7----7--9-------9-9---7--------------------|
B----------------------------------------------------------------|
E----------------------------------------------------------------|

Because theirs a man down their....

E--------------------------------------------------------------|
A---5----------------------------------------------------------|
D---------------7----------------------------------------------|
G------7-7---5-------------------------------------------------|
B--------------------------------------------------------------|
E--------------------------------------------------------------|

might be your man...i dont know.


E---5----------------------------5---------------------------|
A---------------7-------7--------------------7---------------|
D------7-7---5----7--5----5--7------7-7---5------------------|
G------------------------------------------------------------|
B------------------------------------------------------------|
E------------------------------------------------------------|


E---5----------------------------5---------------------------|
A---------------7-------7--------------------7---------------|
D------7-7---5----7--5----5--7------7-7---5------------------|
G------------------------------------------------------------|
B------------------------------------------------------------|
E------------------------------------------------------------|
Lord you got me trapped woman, up on the second floor
[ Tab from: http://www.guitartabs.cc/tabs/t/the_allman_brothers_band/one_way_out_tab.html ]
E---5----------------------------5---------------------------|
A---------------7-------7--------------------7---------------|
D------7-7---5----7--5----5--7------7-7---5------------------|
G------------------------------------------------------------|
B------------------------------------------------------------|
E------------------------------------------------------------|
If I get by this time I won't be trapped no more


E--------------------------------------------------------------|
A---5-----------------------------5----------------------------|
D---------------7-------7--------------------7-----------------|
G------7-7---5----7--5----5--7-------7-7---5-------------------|
B--------------------------------------------------------------|
E--------------------------------------------------------------|
So raise our window baby, I can ease out soft and slow


E---5----------------------------5---------------------------|
A---------------7-------7--------------------7---------------|
D------7-7---5----7--5----5--7------7-7---5------------------|
G------------------------------------------------------------|
B------------------------------------------------------------|
E------------------------------------------------------------|
And lord, your neighbors, no they won't be Talking that stuff that they don't know...

now break into solo with slide or regular guitar, just have fun with it.

E---5----------------------------5---------------------------|
A---------------7-------7--------------------7---------------|
D------7-7---5----7--5----5--7------7-7---5------------------|
G------------------------------------------------------------|
B------------------------------------------------------------|
E------------------------------------------------------------|
Lord, I'm foolish to be here in the first place

E---5----------------------------5---------------------------|
A---------------7-------7--------------------7---------------|
D------7-7---5----7--5----5--7------7-7---5------------------|
G------------------------------------------------------------|
B------------------------------------------------------------|
E------------------------------------------------------------|
I know some man gonna walk in and take my place

E--------------------------------------------------------------|
A---5-----------------------------5----------------------------|
D---------------7-------7--------------------7-----------------|
G------7-7---5----7--5----5--7-------7-7---5-------------------|
B--------------------------------------------------------------|
E--------------------------------------------------------------|
Ain't no way in the world, I'm going out that front door


E----------------------------------------------------------------|
A----7-----------------------------7-----------------------------|
D----------------9-------9--------------------9------------------|
G-------9-9---7----9--7----7--9-------9-9---7--------------------|
B----------------------------------------------------------------|
E----------------------------------------------------------------|
cause theirs a man down there....might be your man i dont know.

E----------------------------5----------------------------5------------|
A---5------------------------------------7-------7---------------------|
D---------------7----------------7-7---5---7--5----5--7------7-7---5---|
G------7-7---5---------------------------------------------------------|
B----------------------------------------------------------------------|
E----------------------------------------------------------------------|
cause theirs a man down there...might be your man i dont know


cause theirs a man down there... oh it just might happen to be your man

(for the very end just mess around with the notes with a little drum solo. It'll be
fun. A good song to play. My band uses it to open gigs but thats just us. Hope you
enjoy it.
Comments