The Allman Brothers Band - In Memory Of Elizabeth Reed Chords & Tabs

 

In Memory Of Elizabeth Reed Chords & Tabs

The Allman Brothers Band Chords & Tabs

Version: 1 Type: Tab 0 ratings
1 star 2 stars 3 stars 4 stars 5 stars
comments

In Memory Of Elizabeth Reed Tab

                In Memory of Elizabeth Reed
                 The Allman Brothers Band

Song was written by Dickey Betts
Intro:
|-7---5-----7---7--|--7---5-----7---7--|--7---5-----7---7-|
|-8---5-----8---7--|--8---5-----8---7--|--8---5-----8---7-|
|-9---5-----9---7--|--9---5-----9---7--|--9---5-----9---7-|
|-10--5-----10--7--|--10--5-----10--7--|--10--5-----10--7-|
|------------------|-------------------|------------------|
|------------------|-------------------|------------------|

Chorus:
|-------5----------5----------------------7--5-------5----|
|-5--8-----------8---8--5\3-5--------5--8-------8--7----5-|
|---------------------------------------------------------|
|---------------------------------------------------------|
|---------------------------------------------------------|
|---------------------------------------------------------|

|----------------------------|
|-----5----------------------|
|---5----7--4---5-7--5-------|
|-7--------------------7-----|
|------------------------7---|
|----------------------------|


|-------5----------5----------------------7--5-------5----|
|-5--8-----------8---8--5\3-5--------5--8-------8--7----5-|
|---------------------------------------------------------|
|---------------------------------------------------------|
|---------------------------------------------------------|
|---------------------------------------------------------|

|----------------------------|
|-----5----------------------|
|---5----7--4---5-7--5-------|
|-7--------------------7-----|
|------------------------7---|
|----------------------------|


|-------5/7\5------5----------------------10-8--------8---|
|-5--8-----------8---8--5\3-5--------5--8------12--10---8-|
|---------------------------------------------------------|
|---------------------------------------------------------|
|---------------------------------------------------------|
|---------------------------------------------------------|
[ Tab from: http://www.guitartabs.cc/tabs/t/the_allman_brothers_band/in_memory_of_elizabeth_reed_tab.html ]
|---------------------------------------------------------|
|-----5------------5--------------------------------------|
|---5---7-4--5-7-----5-----4-5---4------------------------|
|-7--------------------7-----------5----5-----------------|
|------------------------------------7----7---------------|
|---------------------------------------------------------|

Intro to 2nd Chorus:
|------------------------12--8--5--|
|----------------10--13------------|
|---------9--12--------------------|
|-----10---------------------------|
|-12-------------------------------|
|----------------------------------|

2nd Chorus:
|------7---5------------------7---5---|
|-5--8---8---8-5---------5--8---8---8-|
|----------------7p5------------------|
|--------------------7----------------|
|-------------------------------------|
|-------------------------------------|

|------7---5------------------7---5---|
|-5--8---8---8-5---------5--8---8---8-|
|----------------7p5------------------|
|--------------------7----------------|
|-------------------------------------|
|-------------------------------------|


|-------10----8----------------------10-----8---|
|-8--11----11---11-8----8-11---8--11----11----8-|
|--------------------10-------------------------|
|-----------------------------------------------|
|-----------------------------------------------|
|-----------------------------------------------|


|------7---5------------------7---5---|
|-5--8---8---8-5---------5--8---8---8-|
|----------------7p5------------------|
|--------------------7----------------|
|-------------------------------------|
|-------------------------------------|


|-----------------------------------|
|-4--5--4--5--7--5--4--5--4--5--0h1-|
|-----------------------------------|
|-----------------------------------|
|-----------------------------------|
|-----------------------------------|


|-----------------------------------|
|-4--5--4--5--7--5--4--5--4--5--0h1-|
|-----------------------------------|
|-----------------------------------|
|-----------------------------------|
|-----------------------------------|


|-5-----------------------|
|----8--5---------------8-|
|----------7--5-----5---7-|
|----------------7------6-|
|-----------------------7-|
|-------------------------|
Comments