The All American Rejects - Swing Swing Chords & Tabs

 

Swing Swing Chords & Tabs

The All American Rejects Chords & Tabs

Version: 4 Type: Tab 0 ratings
1 star 2 stars 3 stars 4 stars 5 stars
comments

Swing Swing Tab

   
The All American Rejects kick ass!
This is a sweet song and im pretty sure its all correct
Enjoy!!                      Tabbed by : TRAVIS HARTILL   2-18-03

Standard Tuning: E a d g b E

(INTRO)                                            (VERSE)
E--------------------------------------------|-------------------
a--------------------------------------------|-------------------
d---------7---------------5------------------|---12-12----12-----
g-5-------7-x8----2-------5-x8------X2-------|---12-12----12-----X8
b-5-x8----5-------2-x8----3------------------|---10-10----10-----
e-3---------------0--------------------------|-------------------
 
(SECOND PART OF VERSE)     (Palm Mute)
E---------------------------------------------------------------- 
a---------------------------------------------------------------- 
d-----------------5---------------------------------------------- 
g-5-------2-------5-x8-----X2------------------------------------
b-5-x16---2-x8----3----------------------------------------------
e-3-------0------------------------------------------------------  

(PRE-CHORUS)
E---------------------------------------------------------------- 
a---------------------------------------------------------------- 
d-4---4-------5--5--5----------7-7-/-9--------------------------- 
g-4---4-------5--5--5----------7-7-/-9---------------------------
b-2---2-------3--3--3----------5-5-/-7--------------------------- 
e---------------------------------------------------------------- 

(CHORUS)
E---------------------------------------------------------------- 
a---------------------------------------------------------------- 
d--------7---------------5---------------------------------------
g-5------7-x8----2-------5-x8----------X2------------------------
b-5-x8---5-------2-x8----3--------------------------------------- 
e-3--------------0-----------------------------------------------
[ Tab from: http://www.guitartabs.cc/tabs/t/the_all_american_rejects/swing_swing_tab_ver_4.html ]
(SOLO)
E-----3-/-10-----8\7---8/3-----15-----3--15--12--7-8-10---8-7----
a----------------------------------------------------------------
d---------------------------------------------------------------- 
g----------------------------------------------------------------
b---------------------------------------------------------------- 
e----------------------------------------------------------------

E-8-10---7--8--10----3----15---3---555---7777--8\\\\-------------
a---------------------------------------------------------------- 
d---------------------------------------------------------------- 
g----------------------------------------------------------------
b---------------------------------------------------------------- 
e----------------------------------------------------------------

(INTERLUDE)
Carry me..........     You thought your problems were solved
E---------------------------------------------------------------- 
a---------------------------------------------------------------- 
d---------7-7----------------------------------------------------
g-5-5-----7-7---------5---2--------------------------------------
b-5-5-----5-5---------5---2-(let-ring--CLEAN)--------------------
e-3-3-----------------3---0--------------------------------------

                                                        Away....
E---------------------------------------------------------------- 
a---------------------------------------------------------------- 
d-------777-5-7-5-7----------7-7----777-5-7-5-7-5-----------5----
g-5-5------------------------7-7------------------7---------5-x16-
b-5-5------------------------5-5----------------------------3----
e-3-3------------------------------------------------------------  



Intro
Verse
Second Part of Verse
Pre Chorus
Chorus
Verse
Second Part of Verse
Pre Chorus
Chorus
Solo
Interlude
Chorus                                                                                                                                       
Comments