The All American Rejects - Swing Swing Chords & Tabs

 

Swing Swing Chords & Tabs

The All American Rejects Chords & Tabs

Version: 3 Type: Tab 0 ratings
1 star 2 stars 3 stars 4 stars 5 stars
comments

Swing Swing Tab

song:swing swing
artist:the all-american rejects
tabbed:lessthanthree

intro:
e--3-3--3----3-3--3----3-3--3----3-3--3-------------------------------------------
B--3-3--3----3-3--3----3-3--3----3-3--3-------------------------------------------
G--0-0--0----0-0--0----0-0--0----0-0--0-----repeat X2----------------
D--0-0--0----0-0--0----2-2--2----2-2--2---------------------------
A--2-2--2----0-0--0----2-2--2----3-3--3------------------------------------------
E--3-3--3----2-2--2----x-x--x----x-x--x---------------------------------------
   v v  ^    v v  ^    v v  ^    v v  ^

[ Tab from: http://www.guitartabs.cc/tabs/t/the_all_american_rejects/swing_swing_tab_ver_3.html ]
verse/chorus: (verse palm muted)
e--------------------------------------------------------------------
B----------------------------------------------------
G-----------------------------5-----------------------
D--5--------5--------2--------5--X8--------------------------------------
A--5--X8----5--X8----2--X8----3---------------------------------------------
E--3--------2--------0-----------------------------------------------


saw these guys at the 930 club...know that these are the right chords.
these guys kick ass, and if you like them you should check out a band 
called the plain white t's.

-lessthanthree
Comments