The All American Rejects - Swing Swing Chords & Tabs

 

Swing Swing Chords & Tabs

The All American Rejects Chords & Tabs

Version: 1 Type: Tab 0 ratings
1 star 2 stars 3 stars 4 stars 5 stars
comments

Swing Swing Tab

standard tuning: Eadgbe
song: swing swing
artist: the all-american rejects
submitted by:JKeene

intro: 
e---------------------------------------------
b---------------------------------------------
g-------------7-7--7-----------5-5--5--------- do this 2 times
d---5-5--5----7-7--7---2-2--2--5-5--5---------     
a---5-5--5----5-5--5---2-2--2--3-3--3---------
E---3-3--3-------------0-0--0-----------------

intro part 2:
e--------------------------------------------------------------------------
b--------------------------------------------------------------------------
g---------------------7-7-7-7-7-7-7-7---------------------5-5-5-5-5-5-5-5--
d---5-5-5-5-5-5-5-5---7-7-7-7-7-7-7-7---2-2-2-2-2-2-2-2---5-5-5-5-5-5-5-5--do this 2 times
a---5-5-5-5-5-5-5-5---5-5-5-5-5-5-5-5---2-2-2-2-2-2-2-2---3-3-3-3-3-3-3-3--
E---3-3-3-3-3-3-3-3---------------------0-0-0-0-0-0-0-0--------------------

verse:
e---------------------------------------------
b---------------------------------------------
g------------7-7--7------------5-5--5--------- do this 2 times
d---5-5--5---7-7--7---2-2--2---5-5--5---------
a---5-5--5---5-5--5---2-2--2---3-3--3---------
E---3-3--3------------0-0--0------------------

don't play for the rest of the verse then come back in for the chorus

chorus:
e--------------------------------------------------------------------------
b--------------------------------------------------------------------------
g---------------------7-7-7-7-7-7-7-7---------------------5-5-5-5-5-5-5-5--
d---5-5-5-5-5-5-5-5---7-7-7-7-7-7-7-7---2-2-2-2-2-2-2-2---5-5-5-5-5-5-5-5-- do this 2 times
a---5-5-5-5-5-5-5-5---5-5-5-5-5-5-5-5---2-2-2-2-2-2-2-2---3-3-3-3-3-3-3-3--
E---3-3-3-3-3-3-3-3---------------------0-0-0-0-0-0-0-0--------------------

verse:
e---------------------------------------------
b---------------------------------------------
g------------7-7--7------------5-5--5--------- do this 2 times
d---5-5--5---7-7--7----2-2--2--5-5--5---------     
a---5-5--5---5-5--5----2-2--2--3-3--3---------
E---3-3--3-------------0-0--0-----------------

don't play for the rest of the verse then come back in for the chorus
[ Tab from: http://www.guitartabs.cc/tabs/t/the_all_american_rejects/swing_swing_tab.html ]
chorus:
e----------------------------------------------------------------------------
b----------------------------------------------------------------------------
g---------------------7-7-7-7-7-7-7-7---------------------5-5-5-5-5-5-5-5----
d---5-5-5-5-5-5-5-5---7-7-7-7-7-7-7-7---2-2-2-2-2-2-2-2---5-5-5-5-5-5-5-5----  do this 2 times
a---5-5-5-5-5-5-5-5---5-5-5-5-5-5-5-5---2-2-2-2-2-2-2-2---3-3-3-3-3-3-3-3----
E---3-3-3-3-3-3-3-3---------------------0-0-0-0-0-0-0-0----------------------

bridge:
e---------------------------------------------------------------------------
b---------------------------------------------------------------------------
g---------------------7-7-7-7-7-7-7-7---------------------5-5-5-5-5-5-5-5---
d---5-5-5-5-5-5-5-5---7-7-7-7-7-7-7-7---2-2-2-2-2-2-2-2---5-5-5-5-5-5-5-5---
a---5-5-5-5-5-5-5-5---5-5-5-5-5-5-5-5---2-2-2-2-2-2-2-2---3-3-3-3-3-3-3-3---
E---3-3-3-3-3-3-3-3---------------------0-0-0-0-0-0-0-0---------------------

do this until it slows down then play this part

bridge part 2:
e------------------------------------------------------------------------
b------------------------------------------------------------------------
g---------7-7---------7-7------------------------------------------------
d---5-5---7-7---5-5---7-7---5-5-5-5-5-5-5-5-5-5-5-5-5-5-5-5--------------
a---5-5---5-5---5-5---5-5---5-5-5-5-5-5-5-5-5-5-5-5-5-5-5-5--------------
E---3-3---------3-3---------3-3-3-3-3-3-3-3-3-3-3-3-3-3-3-3--------------

chorus:
e--------------------------------------------------------------------------
b--------------------------------------------------------------------------
g---------------------7-7-7-7-7-7-7-7---------------------5-5-5-5-5-5-5-5--
d---5-5-5-5-5-5-5-5---7-7-7-7-7-7-7-7---2-2-2-2-2-2-2-2---5-5-5-5-5-5-5-5--do this 2 times
a---5-5-5-5-5-5-5-5---5-5-5-5-5-5-5-5---2-2-2-2-2-2-2-2---3-3-3-3-3-3-3-3--
E---3-3-3-3-3-3-3-3---------------------0-0-0-0-0-0-0-0--------------------

outro:
e-------------------------------------------------------------------------------
b-------------------------------------------------------------------------------
g-------------------------7-7-7-7-7-7-7-7---------------------5-5-5-5-5-5-5-5---
d---5-5-5-5-5-5-5-5-------7-7-7-7-7-7-7-7---2-2-2-2-2-2-2-2---5-5-5-5-5-5-5-5--- 
a---5-5-5-5-5-5-5-5-------5-5-5-5-5-5-5-5---2-2-2-2-2-2-2-2---3-3-3-3-3-3-3-3---
E---3-3-3-3-3-3-3-3-------------------------0-0-0-0-0-0-0-0---------------------

do this until the end of the song, its and easy song but its fun so good luck!
Comments