The Afters - Wait Chords & Tabs

 

Wait Chords & Tabs

The Afters Chords & Tabs

Version: 1 Type: Tab 0 ratings
1 star 2 stars 3 stars 4 stars 5 stars
comments

Wait Tab

   
Artist: The Afters
Song Title: Wait
CD: I wish We All Could Win
Tabbed by: Daniel Van Wingerden

Comments: DanVW36@hotmail.com

This awesome song is off of The Afters new CD. It's an amazing acoustic song and I 
this tab is 100% correct if you take the time to learn it in it's entirety. As always, refer 
the song for timing and rhythm.

You can play the song in standard tuning if you want, but it's going to be a half step higher.

TUNING: Standard Flat (Eb, G#, C#, F#, Bb, Eb)

Guides:
s - Slide
h - Hammer
P - pluck all notes at once (Not strumming)
S - Strum the notes with your thumb

Chords Used: C  Am Em Gm Dm Fm G  F

	e-------------3--1--1--1--1--|
	B----1--1-----3--3--1--0--1--|
	G----0--2--0--3--2--1-----2--|
	D----2--2--2--5--0--3-----3--|
	A----3--0--2--5-----3--2--3--|
	E----------0--3-----1--3--1--|

INTRO
   S                    S         S
e---------------------------------1--|
B--1--1------0h1--3h0---1----1----1--|
G--0----0---------------2------2--1--|
D--2---------0h2--3h0---3--3------3--|
A--3--------------------3---------3--|
E---------------------------------1--|
                   ^
         ***Pull off of D String
         ***and pluck B string
         ***throughout entire song.
         ***Listen to song to hear it

(Lyrics don't match up with the notes - it's just for reference.)

VERSE 1
   S                   S
e-------------------------------------------|
B--1----1----0h1--3h0--1----1-----0h1--3s8--|
G--0------0------------2------2---------s7--|
D--2--2------0h2--3h0--3--3-------0h2--3s8--|
A--3-------------------3--------------------|
E-------------------------------------------|
Wait, I can hardly wait, to look into your

   S           P  P  S         P  P  P
e--------------1--0--1------1--0-----------------------|
B--8------8-------2--3----3-------3--0----0---1---3----|
G--7----7------2--0--2--2------2--0--0--0---0---0---0--|
D--8--8--------------0---------------------------------|
A--------------0--4------------0--0--------------------|
E------------------------------------3-----------------|
face when the world disappears into your eyes

   S                    S
e-----------------------------------------|
B--1----1----0h1--3h0---1----1----0h1--3--|
G--0------0-------------0------0----------|
D--2--2------0h2--3h0---2--2------0h2--3--|
A--3--------------------3-----------------|
E-----------------------------------------|


VERSE 2
   S                   S
e-------------------------------------------|
B--1----1----0h1--3h0--1----1-----0h1--3s8--|
G--0------0------------2------2---------s7--|
D--2--2------0h2--3h0--3--3-------0h2--3s8--|
A--3-------------------3--------------------|
E-------------------------------------------|
Wait, I can hardly wait, to hear your sweet
[ Tab from: http://www.guitartabs.cc/tabs/t/the_afters/wait_tab.html ]
   S           P  P  S         P  P  P
e--------------1--0--1------1--0-------------------------|
B--8------8-------2--3----3-------3--0----0---0h1---1----|
G--7----7------2--0--2--2------2--0--0--0---0-----0---0--|
D--8--8--------------0-----------------------------------|
A--------------0--4------------0--0----------------------|
E------------------------------------3-------------------|
voice say you've done well my good and faithful... (continued below)

***when he says son he starts to strum a C chord

                          C    Am                    Em
(...my good and faithful) son, breathe, I can hardly breathe

        Gm Dm                    Fm     C
In anticipation, waiting for the day to come when you will

Em    G
shine on...


   S                    S         S
e---------------------------------1--|
B--1----1----0h1--3h0---1----1----1--|
G--0------0-------------2------2--1--|
D--2--2------0h2--3h0---3--3------3--|
A--3--------------------3---------3--|
E---------------------------------1--|
...me


VERSE 3
   S                   S
e-------------------------------------------|
B--1----1----0h1--3h0--1----1-----0h1--3s8--|
G--0------0------------2------2---------s7--|
D--2--2------0h2--3h0--3--3-------0h2--3s8--|
A--3-------------------3--------------------|
E-------------------------------------------|
Wait, I can hardly wait, to bow down at your feet

   S           P  P  S         P  P  P
e--------------1--0--1------1--0-------------------------|
B--8------8-------2--3----3-------3--0----0---0h1---1----|
G--7----7------2--0--2--2------2--0--0--0---0-----0---0--|
D--8--8--------------0-----------------------------------|
A--------------0--4------------0--0----------------------|
E------------------------------------3-------------------|
kiss the scars that bore my sins... (continued below)

***when he says away he starts to strum a C chord


                  C     Am                    Em
(...bore my sins) away, breathe, I can hardly breathe

        Gm Dm                    Fm     C
In anticipation, waiting for the day to come when you will

Em    G  C    F
shine on me.....

         C    F
shine on me.....

         C    F
shine on me.....

         C    F
shine on me.....

         C    F    C    F
shine on me..............

OUTRO
   S                   s
e-------------------------|
B--1----1----0h1--3h0--1--|
G--0------0------------2--|
D--2--2------0h2--3h0--3--|
A--3-------------------3--|
E-------------------------|
Wait, I can hardly wait...

And that's all there is to it. A little daunting at first, I know.
But once you get the hang of it, it's easy to play. Have fun guys.
God bless
Comments