The Academy Is - Slow Down Chords & Tabs

 

Slow Down Chords & Tabs

The Academy Is Chords & Tabs

Version: 1 Type: Tab 0 ratings
1 star 2 stars 3 stars 4 stars 5 stars
comments

Slow Down Tab

   
Artist-The Academy Is
Album-Almost Here
Song-Slow Down
Track-#3
Tabbed By-Mynor 
Tuning-Drop D

Verse: Guitar 1 "Close the door..."
e|----------------------|
B|----------------------|
G|-14~----17~----14~----|2x
D|-14~----17~----14~----|
A|-12~----15~----12~----|
D|----------------------|

Guitar 2 
e|-----------------------------------------------------------------|
B|-9-9-9-9-9-9-9-9-5-5-5-5-5-5-5-5-9-9-9-9-9-9-9-9-5-5-5-5-5-5-5-5-|
G|-----------------------------------------------------------------|2x
D|-----------------------------------------------------------------|
A|-----------------------------------------------------------------|
D|-----------------------------------------------------------------|
pm * * * * * * * * * * * * * * * * * * * * * * * * * * * * * * * *

Guitar 1 "You've won the role..."
e|-------------|
B|-------------|
G|-14~----17~--|
D|-14~----17~--|
A|-12~----15~--|
D|-------------|

Guitar 2 "But I'm not impressed..." 
e|-----------|
B|-----------|
G|-----9---9-|2x
D|-----9---9-|
A|-----7---7-|
D|-7-7---7---|
   * *   *

Guitar 1 "Because the film runs a shallow budget..."
e|-------------|
B|-------------|
G|-14~----17~--|
D|-14~----17~--|
A|-12~----15~--|
D|-------------|

Guitar 2 "deeper..."
e|-----------|
B|-----------|
G|-----9---9-|2x
D|-----9---9-|
A|-----7---7-|
D|-7-7---7---|
   * *   *

Pre-Chorus: Guitar 1 "Hollywood hills..."
e|-------------------------------------|
B|-------------------------------------|
G|-------------------------------------|
D|-9-9-9-9-9-9-9-9-4-4-9-9-9-9-9-9-9-9-|
A|-9-9-9-9-9-9-9-9-4-4-9-9-9-9-9-9-9-9-|
D|-9-9-9-9-9-9-9-9-4-4-9-9-9-9-9-9-9-9-|
   * * * * * * * * * * * * * * * * * *

Guitar 1 "I'm not like them..."
e|---------------------------------|
B|---------------------------------|
G|---------------------------------|
D|-7-7-7-7-7-7-7-7-6-6-6-6-6-6-6-6-|
A|-7-7-7-7-7-7-7-7-6-6-6-6-6-6-6-6-|
D|-7-7-7-7-7-7-7-7-6-6-6-6-6-6-6-6-|
   * * * * * * * * * * * * * * * *

Repeat Pre-chorus

Chorus: Guitar 1 "Take back..."
e|-----------------------------------------------------------------|
B|-----------------------------------------------------------------|
G|-4-4-4-4-4-4-4-4-7-7-7-7-7-7-7-7---------------------------------|2x
D|-4-4-4-4-4-4-4-4-7-7-7-7-7-7-7-7-7-7-7-7-7-7-7-7-6-6-6-6-6-6-6-6-|
A|-2-2-2-2-2-2-2-2-5-5-5-5-5-5-5-5-7-7-7-7-7-7-7-7-6-6-6-6-6-6-6-6-|
D|---------------------------------7-7-7-7-7-7-7-7-6-6-6-6-6-6-6-6-|

Guitar 2 you really have to listen for it
e|-----------------------------|
B|-----------------------------|
G|-14-14-14-14-14-14-14-14-11--|
D|--x--x--x--x--x--x--x--x--x--|2x
A|-12-12-12-12-12-12-12-12--9--|
D|-----------------------------|
[ Tab from: http://www.guitartabs.cc/tabs/t/the_academy_is/slow_down_tab.html ]
Verse: Guitar 1 "Alright, Alright Slow Down..."
e|-----|
B|-----|
G|-14~-|
D|-14~-|
A|-12~-|
D|-----|

Guitar 2 "Because I'll regret everything..."
e|-----------|
B|-----------|
G|-----9---9-|2x
D|-----9---9-|
A|-----7---7-|
D|-7-7---7---|
   * *   *

Repeat Verse

Pre-Chorus: Guitar 1 "Hollywood hills..."
e|-------------------------------------|
B|-------------------------------------|
G|-------------------------------------|
D|-9-9-9-9-9-9-9-9-4-4-9-9-9-9-9-9-9-9-|
A|-9-9-9-9-9-9-9-9-4-4-9-9-9-9-9-9-9-9-|
D|-9-9-9-9-9-9-9-9-4-4-9-9-9-9-9-9-9-9-|
   * * * * * * * * * * * * * * * * * *

Guitar 1 "I'm not like them..."
e|---------------------------------|
B|---------------------------------|
G|---------------------------------|
D|-7-7-7-7-7-7-7-7-6-6-6-6-6-6-6-6-|
A|-7-7-7-7-7-7-7-7-6-6-6-6-6-6-6-6-|
D|-7-7-7-7-7-7-7-7-6-6-6-6-6-6-6-6-|
   * * * * * * * * * * * * * * * *

Guitar 2 gets this in every once in a while
e|-----|
B|-----|
G|-9-9-|
D|-x-x-|
A|-7-7-|
D|-----|

Repeat Pre-Chorus

Chorus: Guitar 1 "Take back..."
e|-----------------------------------------------------------------|
B|-----------------------------------------------------------------|
G|-4-4-4-4-4-4-4-4-7-7-7-7-7-7-7-7---------------------------------|2x
D|-4-4-4-4-4-4-4-4-7-7-7-7-7-7-7-7-7-7-7-7-7-7-7-7-6-6-6-6-6-6-6-6-|
A|-2-2-2-2-2-2-2-2-5-5-5-5-5-5-5-5-7-7-7-7-7-7-7-7-6-6-6-6-6-6-6-6-|
D|---------------------------------7-7-7-7-7-7-7-7-6-6-6-6-6-6-6-6-|

Guitar 2 
e|-----------------------------|
B|-----------------------------|
G|-14-14-14-14-14-14-14-14-11--|
D|--x--x--x--x--x--x--x--x--x--|2x
A|-12-12-12-12-12-12-12-12--9--|
D|-----------------------------|

Bridge: Guitar 1 "I'm not saying that I'm not breaking..."
e|-------------------------------------|
B|-------------------------------------|
G|-7~-----11~--------------------------|2x
D|-7~-----11~------7-7-7-7-7-7-7--7----|
A|-5~------9~------7-7-7-7-7-7-7--7-4x-|
D|-----------------7-7-7-7-7-7-7--7----|
                   * * * * * * *

Guitar 1 "Alright, alright Slow Down..."
e|----|
B|----|
G|-7~-|
D|-7~-|
A|-5~-|
D|----|

Guitar 1
e|-----------------------------------------------------------------|
B|-----------------------------------------------------------------|
G|-4-4-4-4-4-4-4-4-7-7-7-7-7-7-7-7---------------------------------|
D|-4-4-4-4-4-4-4-4-7-7-7-7-7-7-7-7-7-7-7-7-7-7-7-7-6-6-6-6-6-6-6-6-|
A|-2-2-2-2-2-2-2-2-5-5-5-5-5-5-5-5-7-7-7-7-7-7-7-7-6-6-6-6-6-6-6-6-|
D|---------------------------------7-7-7-7-7-7-7-7-6-6-6-6-6-6-6-6-|

Guitar 2 
e|-----------------------------|
B|-----------------------------|
G|-14-14-14-14-14-14-14-14-11--|
D|--x--x--x--x--x--x--x--x--x--|
A|-12-12-12-12-12-12-12-12--9--|
D|-----------------------------|

It ends with this through the rest of the song. Major-Mynor
Comments