The 4th Dimension - People Chords & Tabs

 

People Chords & Tabs

The 4th Dimension Chords & Tabs

Version: 1 Type: Tab 0 ratings
1 star 2 stars 3 stars 4 stars 5 stars
comments

People Tab

The 4th Dimension is a young, new punk band from Australia. The URL for their
site is http://the4thdimension.newcastlebands.com . They havent been together
long but slowly making progress. This tab will be enjoyed by many in the future.

-------------------------------------------------------------------------------
			     PEOPLE - The 4th Dimension
-------------------------------------------------------------------------------

Tabbed by: 4D
Email: the4thdimension_punk@hotmail.com

Tuning: Standard

Intro
e-----------------------------|------------------------|
B----33333--3333--------------|--33333--33xx--88xx-----|
G----22222--2222--------------|--22222--22xx--77xx-----|
D-----------------22222-------|------------------------|
A-----------4444--22222--2222-|---------44xx--99xx--2--|
E------------------------3333-|---------------------3--|

Verse 1
e-----------------------------|---------------------------|
B----33333--3333--------------|--33333--3333--88xx--------|
G----22222--2222--------------|--22222--2222--77xx--------|x2
D-----------------22222-------|---------------------------|
A-----------4444--22222--2222-|---------4444--99xx--2-222-|
E------------------------3333-|---------------------3-333-|

e----------------|
B----------------|
G----------------|
D--------------5-|
A--------------5-|
E---000000000--3-|

Verse 2
e-----------------------------|---------------------------|
B----33333--3333--------------|--33333--3333--88xx--------|
G----22222--2222--------------|--22222--2222--77xx--------|x2
D-----------------22222-------|---------------------------|
A-----------4444--22222--2222-|---------4444--99xx--2-222-|
E------------------------3333-|---------------------3-333-|

e----------------|
B----------------|
G----------------|
D---222222222--5-|
A---222222222--5-|
E---000000000--3-|
[ Tab from: http://www.guitartabs.cc/tabs/t/the_4th_dimension/people_tab.html ]
Chorus (Strumming)
e---------------------------------|
B---------------------------------|
G---7---------------7-------------|
D---7---5---9---7---7---5---9---5-|
A---5---5---9---7---5---5---9---5-|
E-------3---7---5-------3---7---3-|

(End Strumming)
e-----------------|
B-----------------|
G-----------------|
D--5-5-5-5--xx--9-|
A--5-5-5-5--xx--9-|
E--3-3-3-3--xx--7-|

Verse 3
e-----------------------------|---------------------------|
B----33333--3333--------------|--33333--3333--88xx--------|
G----22222--2222--------------|--22222--2222--77xx--------|x2
D-----------------22222-------|---------------------------|
A-----------4444--22222--2222-|---------4444--99xx--2-222-|
E------------------------3333-|---------------------3-333-|

e----------------|
B----------------|
G----------------|
D---222222222--5-|
A---222222222--5-|
E---000000000--3-|

Chorus (Strumming)
e---------------------------------|
B---------------------------------|
G---7---------------7-------------|
D---7---5---9---7---7---5---9---5-|
A---5---5---9---7---5---5---9---5-|
E-------3---7---5-------3---7---3-|

(End Strumming)
e-----------------|
B-----------------|
G-----------------|
D--5-5-5-5--xx--9-|
A--5-5-5-5--xx--9-|
E--3-3-3-3--xx--7-|

Solo
e--------------------|------------------3-|
B----3----3--------0-|----3----3----3---3-|
G-----2----2---0---0-|-----2----2----2--0-|
D--0------------0--0-|--0---------------0-|
A-------4----2-----2-|-------4----2-----2-|
E------------------3-|------------------3-|

Verse 4
e-------------------|---------------------|
B--3--3--------3--3-|---------------------|
G--2--2--------2--2-|---------------------|
D--------2----------|--22222222-----------|
A-----4--2--2-----4-|--22222222--22222222-|
E--------0--3-------|--00000000--33333333-|

Chorus (Strumming)
e---------------------------------|
B---------------------------------|
G---7---------------7-------------|
D---7---5---9---7---7---5---9---5-|x2
A---5---5---9---7---5---5---9---5-|
E-------3---7---5-------3---7---3-|

(End Strumming)
       ~1~             ~2~       
e-----------------|  e----||
B-----------------|  B----||
G-----------------|  G----||
D--5-5-5-5--xx--9-|  D--5-||
A--5-5-5-5--xx--9-|  A--5-||
E--3-3-3-3--xx--7-|  E--3-||
*Play ~2~ instead of ~1~ at end of last chorus.
Comments