That Dog - She Looks At Me Chords & Tabs

 

She Looks At Me Chords & Tabs

That Dog Chords & Tabs

Version: 1 Type: Bass Tab 0 ratings
1 star 2 stars 3 stars 4 stars 5 stars
comments

She Looks At Me Bass Tab

that dog - she looks at me

Submitted by: Alex Getts. None of this is my own work, Kudos to those that transcribed this.
I am only responsible for submitting this.

transcribed by: aaron wilson (amiloudenough@hotmail.com)

Bass
Standard Tuning

G||--------------------------|--------------------------||---------------------------|
D||--------------------------|--------------------------||*--------------------------|
A||--------------------------|--------------------------||*--------------------------|
E||--------------------------|--------------------------||---------------------------|


                           3x                           
---------------------------||--------------------------|
--------------------------*||--------------------------|
--------------------------*||--------------------------|
---------------------------||--------------------------|


                                                                                          3x
|-------------------------------------------|---------------------------------------------||
|*------------------------------------------|--------------------------------------------*||
|*--4--4-4-4--6--6-6-6------------4--4-4-4--|------------4--4-4-4------------------------*||
|-----------------------4--4-4-4------------|--4--4-4-4------------4--4-4-4-4-4--4-4-4-4--||

[ Tab from: http://www.guitartabs.cc/tabs/t/that_dog/she_looks_at_me_btab.html ]
                                                                                    
------------------------------------------|----------------------------------------|
------------------------------------------|----------------------------------------|
------------------------------------------|----------------------------------------|
--0--0-0-0--5--5-5-5--0--0-0-0--7--7-7-7--|--0--0-0-0--5--5-5-5--0--0-0-0-0-0------|


                                                                                          4x
|-------------------------------------------|---------------------------------------------||
|*------------------------------------------|--------------------------------------------*||
|*------------------------------------------|--------------------------------------------*||
|---5--5-5-5--7--7-7-7--0--0-0-0--5--5-5-5--|--0--0-0-0--5--5-5-5--0--0-0-0-0-0--0-0-0-0--||


                                                                               
-----------------------------------|------------------------------------------|
-----------------------------------|------------------------------------------|
-----------------------------------|------------------------------------------|
--0--0-0-0--5--5-5-5--0------------|--0--0-0-0--5--5-5-5--0--0-0-0-0-7--9--7--|


                                         
---------------------------------------||
---------------------------------------||
---------------------------------------||
--0--0-0-0--5--7--5--0--0-0-0-0-0------||

http://www.stopforthatdog.com
http://thatdog.net
http://www.annawaronker.com
Comments