That Dog - Rock Star Chords & Tabs

 

Rock Star Chords & Tabs

That Dog Chords & Tabs

Version: 1 Type: Tab 0 ratings
1 star 2 stars 3 stars 4 stars 5 stars
comments

Rock Star Tab

that dog - rockstar

Submitted by: Alex Getts. None of this is my own work, Kudos to those that transcribed this.
I am only responsible for submitting this.

transcribed by: aaron wilson (amiloudenough@hotmail.com)

Guitar
Open E Tuning
[ Tab from: http://www.guitartabs.cc/tabs/t/that_dog/rock_star_tab.html ]
E ||-------||----------------------------------------|
B ||-------||----------------------------------------|
G#||-------||*---------------------------------------|
E ||-------||*--------0--------0--------0------------|
B ||-------||------0--------0--------0---------0-----|
E ||----4--||---5--------7--------3--------10-----4--|


                                          
----------------------------------------||
----------------------------------------||
--------0------------------------------*||
-----------------0--------0------------*||
-----0--------0--------0---------0------||
--5--------7--------3--------10-----4---||

http://www.stopforthatdog.com
http://thatdog.net
http://www.annawaronker.com
Comments