That Dog - Ridiculous Chords & Tabs

 

Ridiculous Chords & Tabs

That Dog Chords & Tabs

Version: 1 Type: Tab

Ridiculous Tab

that dog - ridiculous

Submitted by: Alex Getts. None of this is my own work, Kudos to those that transcribed this.
I am only responsible for submitting this.

transcribed by: aaron wilson (amiloudenough@hotmail.com)

Guitar
Standard Tuning
[ Tab from: http://www.guitartabs.cc/tabs/t/that_dog/ridiculous_tab.html ]
                            1.                   2.
E||------------------------|-------------------||-------------------|
B||------------------------|-------------------||-------------------|
G||*--5--5--5--5--5--------|------------------*||-------------------|
D||*--6--6--6--6--6--------|------------------*||----------------3--|
A||---6--6--6--6--6--------|-------------------||----------------3--|
E||---4--4--4--4--4--------|-------------------||----------------1--|


                             4x
|----------------------------||
|----------------------------||
|*--------------------------*||
|*--6--6--6--6--6--6--6--3--*||
|---6--6--6--6--6--6--6--3---||
|---4--4--4--4--4--4--4--1---||


http://www.stopforthatdog.com
http://thatdog.net
http://www.annawaronker.com