That Dog - Raina Chords & Tabs

 

Raina Chords & Tabs

That Dog Chords & Tabs

Version: 2 Type: Tab 0 ratings
1 star 2 stars 3 stars 4 stars 5 stars
comments

Raina Tab

that dog - raina

Submitted by: Alex Getts. None of this is my own work, Kudos to those that transcribed this.
I am only responsible for submitting this.

transcribed by: aaron wilson (amiloudenough@hotmail.com)

Guitar
Standard Tuning

   Slow
E||--------------------|--------------------|--------------------|--------------------|
B||--------------------|--------------------|--------------------|--------------------|
G||--------------------|--------------------|--------------------|--------------------|
D||--------------------|--------------------|--------------------|--------------------|
A||--------------------|--------------------|--------------------|--------------------|
E||--7--------4--------|--2--------2--------|--7--------4--------|--2--------2--------|


                                                                                    
--------------------|--------------------|--------------------|--------------------|
--------------------|--------------------|--------------------|--------------------|
--------------------|--------------------|--------------------|--------------------|
--------------------|--------------------|--------------------|--------------------|
--------------------|--------------------|--------------------|--------------------|
--7--------4--------|--2--------2--------|--7--------4--------|--2--------2--------|


                                                                                    
--------------------|--------------------|--------------------|--------------------|
--------------------|--------------------|--------------------|--------------------|
--------------------|--------------------|--------------------|--------------------|
--------------------|--------------------|--------------------|--------------------|
--------------------|--------------------|--------------------|--------------------|
--7--------4--------|--2--------2--------|--7--------4--------|--2--------2--------|


                                                                                    
--------------------|--------------------|--------------------|--------------------|
--------------------|--------------------|--------------------|--------------------|
--------------------|--------------------|--------------------|--------------------|
--------------------|--------------------|--------------------|--------------------|
--------------------|--------------------|--------------------|--------------------|
--5--------4--------|--2--------2--------|--2--------2--------|--3--------3--------|


                                                                                    
--------------------|--------------------|--------------------|--------------------|
--------------------|--------------------|--------------------|--------------------|
--------------------|--------------------|--------------------|--------------------|
--------------------|--------------------|--------------------|--------------------|
--------------------|--------------------|--------------------|--------------------|
--7--------7--------|--5--------5--------|--2--------2--------|--3--------3--------|


                                                                                    
--------------------|--------------------|--------------------|--------------------|
--------------------|--------------------|--------------------|--------------------|
--------------------|--------------------|--------------------|--------------------|
--------------------|--------------------|--------------------|--------------------|
--------------------|--------------------|--------------------|--------------------|
--7--------7--------|--5--------5--------|--3--------3--------|--2--------2--------|


                                                                                    
-------------------|---------------------|--------------------|--------------------|
-------------------|---------------------|--------------------|--------------------|
-------------------|---------------------|--------------------|--------------------|
-------------------|---------------------|--------------------|--------------------|
-------------------|---------------------|--------------------|--------------------|
--0----------------|--0--------0----2----|--3--------3--------|--2--------2--------|


                                              Faster                       
--------------------|----------------------|--0--0--0----0--0--0----|
--------------------|----------------------|--0--0--0----0--0--0----|
--------------------|----------------------|--8--8--8----5--5--5----|
--------------------|----------------------|--9--9--9----6--6--6----|
--------------------|----------------------|--9--9--9----6--6--6----|
--0--------0--------|--2----2----2----2----|--7--7--7----4--4--4----|


                                                                           
--0--0--0--0----0--0----|--0--0--0----0--0--0----|--0--0--0--0----0--0----|
--0--0--0--0----0--0----|--0--0--0----0--0--0----|--0--0--0--0----0--0----|
--3--3--3--3----3--3----|--8--8--8----5--5--5----|--3--3--3--3----3--3----|
--4--4--4--4----4--4----|--9--9--9----6--6--6----|--4--4--4--4----4--4----|
--4--4--4--4----4--4----|--9--9--9----6--6--6----|--4--4--4--4----4--4----|
--2--2--2--2----2--2----|--7--7--7----4--4--4----|--2--2--2--2----2--2----|

[ Tab from: http://www.guitartabs.cc/tabs/t/that_dog/raina_tab_ver_2.html ]
                                                                           
--0--0--0----0--0--0----|--0--0--0--0----0--0----|--0--0--0----0--0--0----|
--0--0--0----0--0--0----|--0--0--0--0----0--0----|--0--0--0----0--0--0----|
--8--8--8----5--5--5----|--3--3--3--3----3--3----|--8--8--8----5--5--5----|
--9--9--9----6--6--6----|--4--4--4--4----4--4----|--9--9--9----6--6--6----|
--9--9--9----6--6--6----|--4--4--4--4----4--4----|--9--9--9----6--6--6----|
--7--7--7----4--4--4----|--2--2--2--2----2--2----|--7--7--7----4--4--4----|


                                                                           
--0--0--0--0----0--0----|--0--0--0----0--0--0----|--0--0--0--0----0--0----|
--0--0--0--0----0--0----|--0--0--0----0--0--0----|--0--0--0--0----0--0----|
--3--3--3--3----3--3----|--8--8--8----5--5--5----|--3--3--3--3----3--3----|
--4--4--4--4----4--4----|--9--9--9----6--6--6----|--4--4--4--4----4--4----|
--4--4--4--4----4--4----|--9--9--9----6--6--6----|--4--4--4--4----4--4----|
--2--2--2--2----2--2----|--7--7--7----4--4--4----|--2--2--2--2----2--2----|


                                                                           
--0--0--0----0--0--0----|--0--0--0--0----0--0----|--0--0--0----0--0--0----|
--0--0--0----0--0--0----|--0--0--0--0----0--0----|--0--0--0----0--0--0----|
--8--8--8----5--5--5----|--3--3--3--3----3--3----|--6--6--6----5--5--5----|
--9--9--9----6--6--6----|--4--4--4--4----4--4----|--7--7--7----6--6--6----|
--9--9--9----6--6--6----|--4--4--4--4----4--4----|--7--7--7----6--6--6----|
--7--7--7----4--4--4----|--2--2--2--2----2--2----|--5--5--5----4--4--4----|


                                                                           
--0--0--0--0----0--0----|--0--0--0--0--0--0--0--0--|--0--0------0--0------|
--0--0--0--0----0--0----|--0--0--0--0--0--0--0--0--|--0--0------0--0------|
--3--3--3--3----3--3----|--3--3--3--3--3--3--3--3--|--3--3------4--4------|
--4--4--4--4----4--4----|--4--4--4--4--4--4--4--4--|--4--4------5--5------|
--4--4--4--4----4--4----|--4--4--4--4--4--4--4--4--|--4--4------5--5------|
--2--2--2--2----2--2----|--2--2--2--2--2--2--2--2--|--2--2------3--3------|


                                                                           
--0--0--0--0----0--0--0--|--0--0------0--0------|--0--0--0--0----0--0--0--|
--0--0--0--0----0--0--0--|--0--0------0--0------|--0--0--0--0----0--0--0--|
--8--8--8--6----6--6--6--|--3--3------4--4------|--8--8--8--6----6--6--6--|
--9--9--9--7----7--7--7--|--4--4------5--5------|--9--9--9--7----7--7--7--|
--9--9--9--7----7--7--7--|--4--4------5--5------|--9--9--9--7----7--7--7--|
--7--7--7--5----5--5--5--|--2--2------3--3------|--7--7--7--5----5--5--5--|


                                                                                 
--0--0--0--0--0--0--0--0--|--0--0--0--0--0--0--0--0--|--0--0--0--0--0--0--0--0--|
--0--0--0--0--0--0--0--0--|--0--0--0--0--0--0--0--0--|--0--0--0--0--0--0--0--0--|
--4--4--4--4--3--3--3--3--|--1--1--1--1--1--1--1--1--|--4--4--4--4--3--3--3--3--|
--5--5--5--5--4--4--4--4--|--2--2--2--2--2--2--2--2--|--5--5--5--5--4--4--4--4--|
--5--5--5--5--4--4--4--4--|--2--2--2--2--2--2--2--2--|--5--5--5--5--4--4--4--4--|
--3--3--3--3--2--2--2--2--|--0--0--0--0--0--0--0--0--|--3--3--3--3--2--2--2--2--|


                                                                             
--0--0--0--0--0--0--0--0--|--0--0--0----0--0--0----|--0--0--0--0----0--0----|
--0--0--0--0--0--0--0--0--|--0--0--0----0--0--0----|--0--0--0--0----0--0----|
--1--1--1--1--3--3--3--3--|--8--8--8----5--5--5----|--3--3--3--3----3--3----|
--2--2--2--2--4--4--4--4--|--9--9--9----6--6--6----|--4--4--4--4----4--4----|
--2--2--2--2--4--4--4--4--|--9--9--9----6--6--6----|--4--4--4--4----4--4----|
--0--0--0--0--2--2--2--2--|--7--7--7----4--4--4----|--2--2--2--2----2--2----|


                                                                           
--0--0--0----0--0--0----|--0--0--0--0----0--0----|--0--0--0----0--0--0----|
--0--0--0----0--0--0----|--0--0--0--0----0--0----|--0--0--0----0--0--0----|
--8--8--8----5--5--5----|--3--3--3--3----3--3----|--8--8--8----5--5--5----|
--9--9--9----6--6--6----|--4--4--4--4----4--4----|--9--9--9----6--6--6----|
--9--9--9----6--6--6----|--4--4--4--4----4--4----|--9--9--9----6--6--6----|
--7--7--7----4--4--4----|--2--2--2--2----2--2----|--7--7--7----4--4--4----|


                                                                             
--0--0--0--0----0--0----|--0--0--0----0--0--0----|--0--0--0--0--0--0--0--0--|
--0--0--0--0----0--0----|--0--0--0----0--0--0----|--0--0--0--0--0--0--0--0--|
--3--3--3--3----3--3----|--8--8--8----5--5--5----|--3--3--3--3--3--3--3--3--|
--4--4--4--4----4--4----|--9--9--9----6--6--6----|--4--4--4--4--4--4--4--4--|
--4--4--4--4----4--4----|--9--9--9----6--6--6----|--4--4--4--4--4--4--4--4--|
--2--2--2--2----2--2----|--7--7--7----4--4--4----|--2--2--2--2--2--2--2--2--|


                                                             
--0--------0--------|--2----------------|------------------||
--0--------0--------|--2----------------|------------------||
--6--------5--------|--3----------------|------------------||
--7--------6--------|--4----------------|------------------||
--7--------6--------|--4----------------|------------------||
--5--------4--------|--2----------------|------------------||

http://www.stopforthatdog.com
http://thatdog.net
http://www.annawaronker.com
Comments