Thastrom - En Vacker Dod Stad Chords & Tabs

 

En Vacker Dod Stad Chords & Tabs

Thastrom Chords & Tabs

Version: 2 Type: Bass Tab 0 ratings
1 star 2 stars 3 stars 4 stars 5 stars
comments

En Vacker Dod Stad Bass Tab

   
                               E N  V A C K E R  D ? D  S T A D
                                      T H ? S T R ? M
 D E T  ? R  N I  S O M  E  D O M  K O N S T I G A, D E T  ? R  J A G  S O M  E  N O R M A L

Intro
-------------------|
-------------------|
-------------------|
111-0-0-0-0-0-0-0--|
(1 x3)


Intro Fill
------------------|
------------------|
-0----------------|
------------------|
 Let ring
[ Tab from: http://www.guitartabs.cc/tabs/t/thastrom/en_vacker_dod_stad_btab_ver_2.html ]
Pre Verse
----------------------------|
----------------------------|
----------------------------|
5-5-5-5-5-5-5-1-1-1-1-1-3-3-|

Verse
----------------------------|
----------------------------|
----------------------------|
5-5-5-5-5-5-5-1-1-1-1-1-3-3-|

Pre Chorus
---------------------|----------|
---------------------|----------|
---------------------|----------|
-1-1-1-1-1-1-1-5-----|-3--3--3--|

Chorus
----------------------------|
----------------------------|
----------------------------|
5-5-5-5-5-5-5-1-1-1-1-1-3-3-|

Solo
----------------------------|
----------------------------|
----------------------------|
5-5-5-5-5-5-5-1-1-1-1-1-3-3-|

/metal_up_your_ass@2die4.com
Comments