Texas Joe Hotdog - Pocahontas Toe Chords & Tabs

 

Pocahontas Toe Chords & Tabs

Texas Joe Hotdog Chords & Tabs

Version: 2 Type: Bass Tab 0 ratings
1 star 2 stars 3 stars 4 stars 5 stars
comments

Pocahontas Toe Bass Tab

Song: pocahonta's toe
Artist: Texas Joe Hotdog
Tabbed by: Brian Beasley

This song is very easy to play just play it slow and after playing the bass 
line 4 times it goes into the hard part and you play the solo.

Main Bass Line
[ Tab from: http://www.guitartabs.cc/tabs/t/texas_joe_hotdog/pocahontas_toe_btab_ver_2.html ]
G|---------------------------|
D|---------------------------|
A|-------------2-0-----------|
E|---4-5--4--2---------------|


Bass Solo

G|--44-55-44-22----------22-4-2-45-7-5454-0---|
D|--------------22-0-2-0----------------------|
A|--------------------------------------------|
E|--------------------------------------------|


G|--4-5-4-2--0-------|
D|-------------------|
A|-------------------|
E|-------------------|

Any question mail me at tnisguy6@hotmail.com
Comments