Texas Is The Reason - Do You Know Who You Are Chords & Tabs

 

Do You Know Who You Are Chords & Tabs

Texas Is The Reason Chords & Tabs

Version: 1 Type: Tab 0 ratings
1 star 2 stars 3 stars 4 stars 5 stars
comments

Do You Know Who You Are Tab

   
Artist: Texas is the reason
Song: Do you know who you are
Tabbed by: 60Secondsfall
 
This is an instrumental song, it has four guitars and a bass in it 
all the guitars drop D
gtr1 => Clean
gtr2 => Clean
Gtr3 => Clean
Gtr4 => distorted, plays feedback things at the background, I havn't tabbed it out
Bass => clean

The Song is Pretty easy to play, The bass repeats this riff during the whole song
G|----------------------------------------------------------|
D|----------------------------------------------------------|
A|---5----------------6---------------------------------6---|
D|-------------------------------------3--------------------|
[ Tab from: http://www.guitartabs.cc/tabs/t/texas_is_the_reason/do_you_know_who_you_are_tab.html ]
gtr1 Keeps on playing this riff (I have indicated the notes played by the bass as ghost 
notes cause it would be easier to understand the riff)
e|--------------5h6p5-----------5-----5------------5-----5------------5-----5--------|
B|---------6-----------6----------6-----6---6--------6-----6---6--------6-----6---6--|
G|------5-----6-----------5---------0-----0------------0-----0------------0-----0----|
D|-----------------------------------------------------------------------------------|
A|--(5)---------------------(6)-----------------------------------(6)----------------|
D|---------------------------------------------(3)-----------------------------------|

After a while gtr2 starts playing this riff
e|---------------------------------------------
B|---------------------------------------------
G|---------------------------------------------
D|--/7----3-----/7---8-7-5----/7--3----5/3-----
A|---------------------------------------------
D|---------------------------------------------

Then Play this
e|---------------------------------------|
B|---------------------------------------|
G|-------5---------5---------5-----------|
D|-----7---------7---------7-------------|
A|-(5)-------(6)----------------(5)------|
D|---------------------(5)---------------|

en then back to the first riff of gtr3

At the and there is a small riff played by gtr3
e|
B|----11--10----11--10----11--10h11p10----13-|
G|-10--------10--------10--------------------|
D|-------------------------------------------|
A|-------------------------------------------|
D|-------------------------------------------|

So that's it, af you have any comments, question or if you've found the feedback part please 
mail me Felix_snuffel@hotmail.com


Comments