Texas In July - Page One Chords & Tabs

 

Page One Chords & Tabs

Texas In July Chords & Tabs

Version: 1 Type: Tab

Page One Tab

   
 Texas in July
"Page One"
I Am

Drop C (C, G, C, F, A, D)

Pretty fast song. some parts may be hard to follow just listen carefully. im pretty sure 
i got all of it! enjoy


(0:00-0:14)
-----------------------------------------------------------------------------|
-----------------------------------------------------------------------------|
-----------------------------------------------------------------------------|
-----------------------------------------------------------------------------|
-4------3-----------3p0---6p0---111-0-0-6--------1-1-11-1-11-0-0-------4-----|
--3-0-0---0-000-0-0-----0-----0-111-0-0----4-3-0-1-1-11-1-11-0-0--0010---3-0-|
            ***                 *** * *          * * ** * ** * *
---------------------------------------------------------------------|
---------------------------------------------------------------------|
---------------------------------------------------------------------|
---------------------------------------------------------------------|
---3----------3p0---6p0---0-0010---6-------1-111-1-11-0-0------6-----|
-0---0-000-0------0-----0-0-0010-0---4-3-0-1-111-1-11-0-0-0010---4-0-|
       ***                * ****           * *** * ** * *

(0:14-0:28)
-----------(x4)---------------|--------------|
------------------------------|--------------|
------------------------------|--------------|
------------------------------|--------------|
-00-0-00-0-0000-0-00-0-0-0000-|-00-0-00-0-00-|
-00-0-00-0-0000-0-00-0-0-0000-|-00-0-00-0-00-|
 ** * ** * **** * ** * * ****   ** * ** * **
[ Tab from: http://www.guitartabs.cc/tabs/t/texas_in_july/page_one_tab.html ]
(0:28-0:42)
-----------------------------------------------------------------------------|
-----------------------------------------------------------------------------|
-----------------------------------------------------------------------------|
-----------------------------------------------------------------------------|
-4------3-----------3p0---6p0---111-0-0-6--------1-1-11-1-11-0-0-------4-----|
--3-0-0---0-000-0-0-----0-----0-111-0-0----4-3-0-1-1-11-1-11-0-0--0010---3-0-|
            ***                 *** * *          * * ** * ** * *
---------------------------------------------------------------------|
---------------------------------------------------------------------|
---------------------------------------------------------------------|
---------------------------------------------------------------------|
---3----------3p0---6p0---0-0010---6-------1-111-1-11-0-0------6-----|
-0---0-000-0------0-----0-0-0010-0---4-3-0-1-111-1-11-0-0-0010---4-0-|
       ***                * ****           * *** * ** * *

Gtr. 1 (0:42-0:59)
-----------(x4)---------------|-----------------------------|
------------------------------|-----------------------------|
------------------------------|-----------------------------|
------------------------------|--------------0~-------------|
-00-0-00-0-0000-0-00-0-0-0000-|-00-0-00-0-00-0~-6-----5-----|
-00-0-00-0-0000-0-00-0-0-0000-|-00-0-00-0-00-0~---3p0---3p0-|
 ** * ** * **** * ** * * ****   ** * ** * **

Gtr. 2 (0:42-0:58)
-------(x2)--------|----|
-------------------|----|
-12-------10-------|----|
--x-(x32)--x-(x32)-|-0~-|
-10--------9-------|-0~-|
-------------------|-0~-|

(x2)(0:59-1:14)
-----------------------------------------------------------------------------|
-------------------------------11p10-----------------------------------------|
-------------------------------------8p7-------------------------------------|
-----------------------------------------7h8---------------------------------|
---------------6-----------------------------5p0-----------------------------|
-010--0-0-3-00---3-0--0-01-04--------------------1-0-4--010-1p0-1p0-1h4p1p0--|

1st end      |2nd end
-------------|-------------|
-------------|-------------|
-------------|-------------|
-------------|-------------|
-----6---5---|-6---5-------|
-1p0---3---3-|---3---3-010-|

(1:14-1:24)
-----------------------------------|-------------(x2)----------------|
-----------------------------------|---------------------------------|
-----------------------------------|---------------------------------|
-----------------------------------|---------------------------------|
-0-00000~-0~--0000~-0000~--6---5---|-0-00000--0--000000-0000-6---5---|
-1-11111~-1~--1111~-1111~----3---3-|-0-00000--0--000000-0000---3---3-|
 * *****  *   ****  ****             * *****  *  ****** ****

(1:24-1:37)
----------------------------------|---------------|
----------------------------------|---------------|
----------------------------------|---------------|
----------------------------------|---------------|
-0-00000~-0~--0000~-0000~-6---5---|---------0h1---|
-1-11111~-1~--1111~-1111~---3---3-|-1p0-3p0-----0-|
 * *****  *   ****  ****
-----------(x2)------------------|-----|
---------------------------------|-----|
---------------------------------|-----|
---------------------------------|-----|
-0-00000--0--000000-0000-6---5---|-000-|
-0-00000--0--000000-0000---3---3-|-000-|
 * *****  *  ****** ****           ***