Texas In July - May Chords & Tabs

 

May Chords & Tabs

Texas In July Chords & Tabs

Version: 3 Type: Tab 0 ratings
1 star 2 stars 3 stars 4 stars 5 stars
comments

May Tab

Texas In July - May
Standard tuning - EADGBe
Capo - None

Intro x1

e|---------0------------0h2h3-2--------3p2--------0--|
B|----3------3------3-----------3----------3------3--|
G|------0------0------0-----------0---------------0--|
D|--2------------2---------------------------2----2--|
A|----------------------------------2----------3--3--|
E|---------------------------------------------------|

e|---------0-------2-----2h3p2---------3p2-----------0--|
B|----3------3-------3---------3-----------3---------3--|
G|------0------0-----------------0-----------0-------0--|
D|--2------------2-----2-----------2-----------------2--|
A|-----------------------------------2---------0-0-2-3--|
E|------------------------------------------------------|

1st part x2

e|---------0------------0h2h3-2--------3p2-------0-0-00-0------|
B|----3------3------3-----------3----------3s5s3-3-3-33---3----|
G|------0------0------0-----------0--------------0-0-00-----0--|
D|--2------------2-------------------------------0-2-22-------2|
A|----------------------------------2------------0-3-33--------|
E|-------------------------------------------------------------|

e|---------0-------2-----2h3p2---------3p2------0-0-00-0------|
B|----3------3-------3---------3-----------3s3s-3-3-33---3----|
G|------0------0-----------------0--------------0-0-00-----0--|
D|--2------------2-----2-----------2------------0-2-22-------2|
A|-----------------------------------2----------0-3-33--------|
E|------------------------------------------------------------|

Pre-Chorus x1

e|--0-00-0------|
B|--3-33---3----|
G|--0-00-----0--|
D|--2-22-------2|
A|--0-33--------|
E|--------------|

Chorus x2

e|--3-33-333-222-333-3-33-333-222-333-3-33-333-222-333-3-33-333-333-333|
B|--3-33-333-333-333-3-33-333-333-333-3-33-333-333-333-3-33-333-333-333|
G|--0-00-000---------0-00-000---------0-00-000---------0-00-000-000-000|
D|--2-22-222---------0-00-000---------2-22-222---------2-22-222-222-222|
A|--2-22-222---------2-22-222---------3-33-333---------0-00-000-000-000|
E|--0-00-000---------3-33-333---------0-00-000---------0-00-000-000-000|

2nd part x1
[ Tab from: http://www.guitartabs.cc/tabs/t/texas_in_july/may_tab_ver_3.html ]
e|---------0------------0h2h3-2--------3p2--------0--|
B|----3------3------3-----------3----------3------3--|
G|------0------0------0-----------0---------------0--|
D|--2------------2---------------------------2----2--|
A|----------------------------------2----------3--3--|
E|---------------------------------------------------|

e|---------0------------0h2h3-2--------3p2-------0-0-00-0------|
B|----3------3------3-----------3----------3s5s3-3-3-33---3----|
G|------0------0------0-----------0--------------0-0-00-----0--|
D|--2------------2-------------------------------0-2-22-------2|
A|----------------------------------2------------0-3-33--------|
E|-------------------------------------------------------------|

e|--0-00-0------|
B|--3-33---3----|
G|--0-00-----0--|
D|--2-22-------2|
A|--0-33--------|
E|--------------|

e|---------0------------0h2h3-2--------3p2-------0-0-00-0------|
B|----3------3------3-----------3----------3s5s3-3-3-33---3----|
G|------0------0------0-----------0--------------0-0-00-----0--|
D|--2------------2-------------------------------0-2-22-------2|
A|----------------------------------2------------0-3-33--------|
E|-------------------------------------------------------------|

e|---------0-------2-----2h3p2---------3p2------0-0-00-0------|
B|----3------3-------3---------3-----------3s3s-3-3-33---3----|
G|------0------0-----------------0--------------0-0-00-----0--|
D|--2------------2-----2-----------2------------0-2-22-------2|
A|-----------------------------------2----------0-3-33--------|
E|------------------------------------------------------------|

Chorus x2

e|--3-33-333-222-333-3-33-333-222-333-3-33-333-222-333-3-33-333-333-333|
B|--3-33-333-333-333-3-33-333-333-333-3-33-333-333-333-3-33-333-333-333|
G|--0-00-000---------0-00-000---------0-00-000---------0-00-000-000-000|
D|--2-22-222---------0-00-000---------2-22-222---------2-22-222-222-222|
A|--2-22-222---------2-22-222---------3-33-333---------0-00-000-000-000|
E|--0-00-000---------3-33-333---------0-00-000---------0-00-000-000-000|

Outro x1

e|---------0------------0h2h3-2--------3p2--------0--|
B|----3------3------3-----------3----------3------3--|
G|------0------0------0-----------0---------------0--|
D|--2------------2---------------------------2----2--|
A|----------------------------------2----------3--3--|
E|---------------------------------------------------|

e|---------0-------2-----2h3p2---------3p2-----------0--|
B|----3------3-------3---------3-----------3---------3--|
G|------0------0-----------------0-----------0-------0--|
D|--2------------2-----2-----------2-----------------2--|
A|-----------------------------------2---------0-0-2-3--|
E|------------------------------------------------------|
Comments